Song name
# A B C D E F G H I J K L M N O P Q R S T U V W X Y Z

Easyworld - Feensong chords

Easyworld/Beachy Head

Feensong

Verse 1

-------------------7-----|
-------7---------8---8---|
-----7---7-----7-------7-|
---7-------7-9-----------|x2
-5-----------------------|
-------------------------|

---------------------9------------7-------------9------|
-------7----------10---10-------8---8--------10---10---|
-----7---7------9---------9---7-------7----9---------9-|
---7-------7-11-------------9-----------11-------------|
-5-----------------------------------------------------|
-------------------------------------------------------|


Hey kids, remember me?
Do you agree that life was all too easy?
Were you inspired?
I really hope you were.

It's all there for you,
Pre-digested so that you don't have to do a single thing,
Just fit in.

Verse 2

D
You could lose your
G
[]Or your
D
money might
G
explode, Comes as
D
standard, read the
A                       G       A
small print baby, yeah.


(chords as before)
The stars are out tonight,
Takes me back, I'm catching satellites with my best friend,
Hey kids remember me?

Chorus

D                               G               D
and the [sun's/song's breaking] your routine,
G                       Bmin            G
Smashing their machines, I remember,
A
Everyone who woke up by the [sun.]

(chords as with above part of chorus)
Everything is gold,
I do not feel so old.
If I'm not happy with this []
It's time to start again.
(That was good)
Verse 3 (same as verse 2)

Never ask for more,
Throw your [] to the floor,
and forget about your day-job baby, yeah.
You're waiting to retire,
Throw your paycheck on the fire,
You just kick back and wait 'til morning
that's just you and me sounds kickass.

Repeat Chorus

G       D       A
[distorted stuff]
G       D       A
[] see her again

Solo.. uh it’s a bit all over the place a bit of octave soloing like dav usually does….

repeat chorus

End with A few A chords then D G D G D
Tap to rate this tab
# A B C D E F G H I J K L M N O P Q R S T U V W X Y Z