Song name
# A B C D E F G H I J K L M N O P Q R S T U V W X Y Z

Easyworld - Everyone Knows tab

Everyone knows

riff 1

e-------------------|
B-------------3-3-3-|
G-2-5/6-6-6---2-2-2-|
D-2-5/6-6-6-4-0-0-0-|
A-0-3/4-4-4-4-0-0-0-|
E-----------2-------|

riff 2

e---------------------------------------------|
B---------------------------------------------|
G-14-14-14-14-10-10-10-10-11-11-11-11-7-7-9-9-|
D---------------------------------------------|
A-12-12-12-12-8--8--8--8--9--9--9--9--5-5-7-7-|
E---------------------------------------------|

riff 3

b-2b3r2b3r2b3r2b3-10-3-5

Intro

riff 1 x4 clean
riff 1 x4 distorted

Verse 1

riff 2 x4
yeah yeah yeah its some fine revolution
and theres nobody can keep you down
ive paid you bitch now love me yeah cos
thats the way it is now

riffs 2+3 x4
hey hey hey dya know where your kids are
and kids dya know what the grown ups do
cos they all smoke crack in the teachers lounge
and then they beg you not to

Chorus

riff 1 x4
everyone knows that its all lies
theres nothing else on tv tonight

Verse 2
same music as verse 1

well happiness is some cubic zirconia
and one day son it could all be yours
just pin your hopes on industrial illness
and settle out of court

hey hey hey dya know where your kids are
and kids dya know what the grown ups do
cos they all smoke crack in the teachers lounge
and then they beg you not to

Repeat Chorus

Middle 8

e----------------------------------------------------------|
B----14----15----14----17----14----15----14----14h15p14----|
G-14----14----14----14----14----14----14----14----------14-|
D----------------------------------------------------------|
A----------------------------------------------------------|
E----------------------------------------------------------|

e-----------------------------------------|
B-----------------------------------------|
G-9-9-9-9-10-10-10-10-11-11-11-11-7-7-7-7-|
D-----------------------------------------| x3
A-7-7-7-7-8--8--8--8--9--9--9--9--5-5-5-5-|
E-----------------------------------------|

e--------------------------------|
B---------------------17---------|
G-6-6-6-6-13-13-13-13----14b16~~-|
D--------------------------------|
A-4-4-4-4-11-11-11-11------------|
E--------------------------------|

Repeat Chorus x2

End on A
Tap to rate this tab
# A B C D E F G H I J K L M N O P Q R S T U V W X Y Z