Easyworld - Celebrity Killer chords

Highlighted       Show chord diagrams
Celebrity Killer

Example to show what the guitar parts does in between E5 and C chord
G---------------5-5-7-7-7--|
D-5-5-4-2-------5-5-7-7-7--|
A-5-5-4-2-------3-3-5-5-5--|
E-3-3-2-0-0-3-0------------|

Intro

G5      F#5     E5      C       D
G5      F#5     E5      C       D
D       D#      E       E5      C       D
G5      F#5     E5      C       B (hold)

Verse 1

G5      F#5
E5      C               D       G5      F#5
For anyone who looked at me
E5              C               D       D       
D#      E
Were gonna keep it straight
E5      C                       D               G5   
   F#5
Does all the kinks down tinsel town (?!)
E5      C                       B       C
Well I don’t look that great

Chorus

(C)                     G       D       D#      D
Don’t get yourself killed tooodaaaay
(D)     G       D       D#      D
Celebrity killer yeah woah yeah!

Verse 2 (same chords as verse 1)

For anyone who’d go with me
What would you have me say?
Lets talk about America
Lets talk about it yeah?

Repeat Chorus

(a bit messy, partly taken from an early live version)
-------------------------------------------------------------------|
---------11------------------------------11----12------------------|
---------13b15---6-10-9-8-7-3-6-10-9-8-7-13b15-14b16-10-9-8-7-3-5--|
-5-6-7-8-------3---------------------------------------------------|
-5-6-7-8-------3-4-8--7-6-5-1-4-8--7-6-5-------------8--7-6-5-1-3--|
-3-4-5-6-------2---------------------------------------------------|

Verse 3 (same as verse 1)

For anyone who’d go with me
Were gonna keep it straight
For anyone who’d fuck me
Well I don’t look that great

Repeat Chorus

G5 F#5 E5
Tap to rate this tab
 
# A B C D E F G H I J K L M N O P Q R S T U V W X Y Z