Song name
# A B C D E F G H I J K L M N O P Q R S T U V W X Y Z

Easyworld - All I Can Remember tab

All I Can Remember


Btw you need a slide/bottleneck

Key / or \ will always be where dav uses the slide in this tab

Intro

played with a slide on the 7th and 5th frets
------------------------------|
------------------/7-7----5\--|
------------------/7---7--5\--|
-2-----0------2-----------5\--|
-2-----2--0h2-----------------|
-0---2-3----------------------|


Verse

(intro riff)
This is all I can remember after
All I have forgotten well its you oh no

You can strive for a head of empty baby
Try and think of nothing but think of me oh no

Middle Bit

Dav shouts no at some point in here

-----------------------------------------------------------------|
-----------------------------------------------------------------|
-9-9-9-9-9-9-9-9-9-9-9-9-9-9-9-9-9-9-9-9-9-9-9-9-5-5-5-5-4-4-4-4-|
-----------------------------------------------------------------| x2
-7-7-7-7-7-7-7-7-7-7-7-7-7-7-7-7-7-7-7-7-7-7-7-7-3-3-3-3-2-2-2-2-|
-----------------------------------------------------------------|

Repeat Verse with heavy guitar

Dynamics shift to quieter with something like this played..

-/12-12----12-------------------/12-12----12----------------|
-/12---12----12--/7-7----7\5-5--/12---12----12-/7-7--7\5----|
-/12-----12------/7--7---7\5--5-/12-----12-----/7--5-7\5----|
------------------------------------------------------------|
------------------------------------------------------------|
------------------------------------------------------------|

Solo

-0-12\10---------------------------------|
-0--------10/12----------7-----5---------|
-0--------------/12\--/7---7\5---5-------|
-2--------------------/7-----------------|
-2---------------------------------------|
-0---------------------------------------|
Tap to rate this tab
# A B C D E F G H I J K L M N O P Q R S T U V W X Y Z