Song name
# A B C D E F G H I J K L M N O P Q R S T U V W X Y Z

Eatmewhileimhot - Screw The Standard tab

http://www.myspace.com/eatmewhileimhot
okay so this song is in drop C.

you want to see me play it? http://www.youtube.com/watch?v=a4y0sCM69HQ
if you look at this tab, please watch my video and give me stars or comment please :D

it's a really fun song to play, have some cool riffs

pattern the song, YOU FIGURE IT OUT BY YOURSELF, its not that hard
enjoy

Intro
e|------------------------------------------------------------------------------------|
B|-[first guitar]---------------------------------[second guitar]---------------------|
G|-------------------------------------------------9----------------------------------|
D|-4-----------------------------------------------x----------------------------------|
A|-2-----------------------------------------------7----------------------------------|
E|------------------------------------------------------------------------------------|

e|--------------------------------------------------------------------------------|
B|------------------[first time repeat]-----------------[second times]------------|
G|--------------------------------------------------------------------------------|
D|-3--0--3-------------------------------10--9--5--7------------------------------|
A|-3--0--3-------------------------------10--9--5--7------------------------------|
E|-3--0--3-------------------------------10--9--5--7------------------------------|
              .
repeat this 2 times


e|------------------------------------------------------------------------|
B|-------6--6---5--5---------5---5---8--8---------------------------------|
G|-----9--9---7--7---------7---7---9--9-----------------------------------|
D|-7--------------------5-------------------------------------------------|
A|-7--------------------5-------------------------------------------------|
E|-7--------------------5-------------------------------------------------|

e|-----------------------------------------------------------------------------|
B|-----5h6p5--8---8---8---8----------------------------------------------------|
G|----------5--55--55--55------------------------------------------------------|
D|-3----------------------------[repeat 4 times]-------------------------------|
A|-3---------------------------------------------------------------------------|
E|-3---------------------------------------------------------------------------|
 the 5s after the 5h6p5 is all palm mute

e|---------------------------------------------------------------------------|
B|---------------------------------------------------------------------------|
G|---------------------------------------------------------------------------|
D|[pick slilde]--------------------------------------------------------------|
A|-------------000--000-000-000----------------------------------------------|
E|-------------000--000-000-000----------------------------------------------|


e|------3-5-----------------------------------3-5-----------------------------|
B|----------5-3-----------------------------------5-3-------------------------|
G|--------------5-4-----------------------------------5-4---------------------|
D|-3-----------------7-5-----------------------------------10-9--5--7---------|
A|-3---------------------7h8p7-/-3-2-0---------------------10-9--5--7---------|
E|-3-----------------------------------3--------------------10-9--5--7--------|

e|-----------------------------------------------5------------------------------|
B|-----5h6p5--8---8---8---8------------------------8-5--------------------------|
G|----------5--55--55--55------------------------------7-4---4--------4/5-------|
D|-3----------------------------[repeat 3 times]--3---------7----7-5------------|
A|-3------------------------------------------3---------------------------------|
E|-3------------------------------------------3---------------------------------|
 the 5s after the 5h6p5 is all palm mute

e|-----------------------------------------------------------------------------|
B|-----------------------------------------------------------------------------|
G|-----------------------------------------------------------------------------|
D|---------------------0-6-5-0-3-0-3-5----6-5-0-3-0-5-3------------------------|
A|-[pick slide]--------0-6-5-0-3-0-3-5----6-5-0-3-0-5-3------------------------|
E|---------------------0-6-5-0-3-0-3-5----6-5-0-3-0-5-3------------------------|

e|----------------------------------------------------------------------------|
B|----------------------------------------------------------------------------|
G|----------------------------------------------------------------------------|
D|-0---6-6--------------------------6-6-6-------------------------------------|
A|-0-/5-5---[repeat repeat then..]--5-5-5--000-000----------------------------|
E|-0---------------------------------------000-000----------------------------|

DONE! :D
www.myspace.com/eatmewhileimhot

| /  slide up
| \  slide down
| h  hammer-on
| p  pull-off
| ~  vibrato
| +  harmonic
| x  Mute note
===============================================================================
Tap to rate this tab
 
# A B C D E F G H I J K L M N O P Q R S T U V W X Y Z