Song name
# A B C D E F G H I J K L M N O P Q R S T U V W X Y Z

Eatmewhileimhot - The Point tab

-------------------------------------------------------------------------------
                             The Point - Eatmewhileimhot
-------------------------------------------------------------------------------
Tabbed by: Andrew
E-mail: werd75na -at- g mail.com

I'll give credit to Braynz210 on ver1 of this tab. 

I dont know who would want to tab CGCFAD so this is standard tuning. EBGDAE.



|---------------------------------------------------------------|
|---------------------------------------------------------------|
|-2h3-3-3-3-3-3-3-3-3-3-3-3-3-3---2-2-2h3-3-3-3-3-3-3-3-3-3-3-3-|     (x7)
|---------------------------------------------------------------|
|---------------------------------------------------------------|
|---------------------------------------------------------------|
                         (palm muted)
                                                 
|--------------------------------------|
|--------------------------------------|
|--------------------------------------|
|---8-----8-8----8-8--xxxxx------------|
|---8-----8-8----8-8--xxxxx------------|
|---6-----6-6----6-6--xxxxx------------|                                                 


|-----------------------------------------------|
|-----------------------------------------------|
|-----------------------------------------------|
|---8-----8-8----8-8----------10--------12------|
|---8-----8-8----8-8------6/(8)---8/(10)--------|
|---6-----6-6----6-6----------------------------|


|-----------------------------------------------------------|
|-----------------------------------------------------------|
|-----------------------------------------------------------|
|-5----5-5---5----9---7---5--3-3--3-3--3-3-xxxxx------------|
|-5----5-5---5----9---7---5--3-3--3-3--3-3-xxxxx------------|
|-3----3-3---3----7---5---3--1-1--1-1--1-1-xxxxx------------|

|----------------------------------------------------------------|
|----------------------------------------------------------------|
|----------------------------------------------------------------|
|--3--3-3--3-3-------10--------12---5---5-5--5----9--7---5---3---|
|--3--3-3--3-3---6/(8)---8/(10)-----5---5-5--5----9--7---5---3---|
|--1--1-1--1-1----------------------3---3-3--3----7--5---3---1---|


(pause)

|---------|
|---------|
|---------|
|--3~-----|
|--3~-----|
|--1~-----|
Tap to rate this tab
 
# A B C D E F G H I J K L M N O P Q R S T U V W X Y Z