Song name
# A B C D E F G H I J K L M N O P Q R S T U V W X Y Z

Eav - Dre Weie Tauben tab

Artist: EAV 
Title:  Drei weiße Tauben

Tabbed by Fepo

Smash Hit from Austria

Tuning Standard: EADGBe



Intro:

e|-----------------------------------------|
B|-----------------------------------------|
G|-----------------------------------------|
D|---2---2---2---2---2---2---2---2---------|
A|-0---0---0---0---0---0---0---0-----------|
E|-----------------------------------------|



    Guru guru guru   guru guru guru
e|-----------------------------------------|
B|-----------------------------------------|
G|-----------------------------------------|
D|---2---2---2---2---2---2---2---2---------|
A|-0---0---0---0---0---0---0---0-----------|
E|-----------------------------------------|


    guru guru guru guru guru
e|-----------------------------------------|
B|-----------------------------------------|
G|-----------------------------------------|
D|---2---2---2---2---2---2---2---2---------|
A|-0---0---0---0---0---0---0---0-----------|
E|-----------------------------------------|


   Guru guru guru   guru guru guru   guru guru guru
e|-------------------------------------------------|
B|-------------------------------------------------|
G|-------------------------------------------------|
D|---2---2---2---2---2---2---2---2---2---2---2---2-|
A|-0---0---0---0---0---0---0---0---0---0---0---0---|
E|-------------------------------------------------|



Verse 2:

  Drei weiße


   Tauben           auf unserem
e|-----------------------------------------|
B|-----------------------------------------|
G|-----------------------------------------|
D|---2---2---2---2---2---2---2---2---------|
A|-0---0---0---0---0---0---0---0-----------|
E|-----------------------------------------|




  Dach
e|------------------------------------------|
B|------------------------------------------|
G|------------------------------------------|
D|------------------------------------------|
A|---2---2---2---2----2---------------------|
E|-0---0---0---0---0------------------------|


    Drei weiße Tauben            die halten mich 
e|-----------------------------------------------------|
B|-----------------------------------------------------|
G|-----------------------------------------------------|
D|-----------------------------------------------------|
A|---2---2---2---2---2---2---2---2---2---2---2---2---2-|
E|-0---0---0---0---0---0---0---0---0---0---0---0---0---|


   wach
e|------------------------------------------|
B|------------------------------------------|
G|------------------------------------------|
D|---2---2---2---2---2----------------------|
A|-0---0---0---0---0------------------------|
E|------------------------------------------|




  Drei weiße Tauben           die machen
e|-----------------------------------------------------|
B|-----------------------------------------------------|
G|-----------------------------------------------------|
D|---2---2---2---2---2---2---2---2---2---2---2---2---2-|
A|-0---0---0---0---0---0---0---0---0---0---0---0---0---|
E|-----------------------------------------------------|


   
    guru
e|---------------------------------------------------|
B|---------------------------------------------------|
G|----2---2---2---2---2------------------------------|
D|--0---0---0---0---0--------------------------------|
A|---------------------------------------------------|
E|---------------------------------------------------|



   Drei weiße    Tauben        die scheißen mich zu
e|---------------------------------------------------|
B|---------------------------------------------------|
G|---2---2---2------------------------------------2--|
D|-0---0---0------2---2---2-----------------------2--|
A|--------------0---0---0-------------------------0--|
E|---------------------------------------------------|









   Guru guru guru   guru guru guru   guru guru guru
e|-------------------------------------------------|
B|-------------------------------------------------|
G|-------------------------------------------------|
D|---2---2---2---2---2---2---2---2---2---2---2---2-|
A|-0---0---0---0---0---0---0---0---0---0---0---0---|
E|-------------------------------------------------|



   
            A                     E
Drei weisse Tauben - auf unserem Dach

E                                     A
Drei weisse Tauben - die machen mich schwach

E                              D
Drei weisse Tauben - und ein Gewehr

D           A
Drei weisse Tauben - die scheissen nie mehr

A                  
Guru guru guru - guru guru guru - guru guru guru



Refrain:


       D                      A
Guru guru –guru guru- guru guru  - guru guru

A              E                          A
Drei weisse Tauben - die mussten dran glauben

       D                      A
Guru guru  guru guru  guru guru   guru guru

         E
und über allen - Dächern ist Ruh


    Guru guru guru   guru guru guru
e|-----------------------------------------|
B|-----------------------------------------|
G|-----------------------------------------|
D|---2---2---2---2---2---2---2---2---------|
A|-0---0---0---0---0---0---0---0-----------|
E|-----------------------------------------|


    guru guru guru guru guru
e|-----------------------------------------|
B|-----------------------------------------|
G|-----------------------------------------|
D|---2---2---2---2---2---2---2---2---------|
A|-0---0---0---0---0---0---0---0-----------|
E|-----------------------------------------|




   Guru guru guru   guru guru guru   guru guru guru
e|-------------------------------------------------|
B|-------------------------------------------------|
G|-------------------------------------------------|
D|---2---2---2---2---2---2---2---2---2---2---2---2-|
A|-0---0---0---0---0---0---0---0---0---0---0---0---|
E|-------------------------------------------------|


Verse 2:

  Drei weiße


   Tauben           sie flogen so
e|-----------------------------------------|
B|-----------------------------------------|
G|-----------------------------------------|
D|---2---2---2---2---2---2---2---2---------|
A|-0---0---0---0---0---0---0---0-----------|
E|-----------------------------------------|


  hoch
e|------------------------------------------|
B|------------------------------------------|
G|------------------------------------------|
D|------------------------------------------|
A|---2---2---2---2----2---------------------|
E|-0---0---0---0---0------------------------|



    Drei weiße Tauben            jetzt hab’n sie ein 
e|-----------------------------------------------------|
B|-----------------------------------------------------|
G|-----------------------------------------------------|
D|-----------------------------------------------------|
A|---2---2---2---2---2---2---2---2---2---2---2---2---2-|
E|-0---0---0---0---0---0---0---0---0---0---0---0---0---|


   Loch
e|------------------------------------------|
B|------------------------------------------|
G|------------------------------------------|
D|---2---2---2---2---2----------------------|
A|-0---0---0---0---0------------------------|
E|------------------------------------------|




  Drei weiße Tauben           sie liegen im
e|-----------------------------------------------------|
B|-----------------------------------------------------|
G|-----------------------------------------------------|
D|---2---2---2---2---2---2---2---2---2---2---2---2---2-|
A|-0---0---0---0---0---0---0---0---0---0---0---0---0---|
E|-----------------------------------------------------|





   
    Gras
e|---------------------------------------------------|
B|---------------------------------------------------|
G|----2---2---2---2---2------------------------------|
D|--0---0---0---0---0--------------------------------|
A|---------------------------------------------------|
E|---------------------------------------------------|


   Es wird keiner glauben    sie gehen mir nicht ab
e|---------------------------------------------------|
B|---------------------------------------------------|
G|---2---2---2------------------------------------2--|
D|-0---0---0------2---2---2-----------------------2--|
A|--------------0---0---0-------------------------0--|
E|---------------------------------------------------|


   Guru guru guru   guru guru guru   guru guru guru
e|-------------------------------------------------|
B|-------------------------------------------------|
G|-------------------------------------------------|
D|---2---2---2---2---2---2---2---2---2---2---2---2-|
A|-0---0---0---0---0---0---0---0---0---0---0---0---|
E|-------------------------------------------------|




Refrain:


       D                      A
Guru guru  guru guru  guru guru    guru guru

A              E                          A
Drei weisse Tauben   die mussten dran glauben

       D           A
Guru guru   guru guru  

         E
und über allen   Dächern ist Ruh


       D                      A
Guru guru  guru guru- guru guru   guru guru

A              E                          A
Drei weisse Tauben  die mussten dran glauben

       D           A
Guru guru   guru guru  

         E
und über allen   Dächern ist Ruh

Tap to rate this tab
# A B C D E F G H I J K L M N O P Q R S T U V W X Y Z