Song name
# A B C D E F G H I J K L M N O P Q R S T U V W X Y Z

Ebba Gron - Hang Gud tab

---------------------------------------------------------------------------
			     Häng Gud – Ebba Grön
---------------------------------------------------------------------------

Tabbad av: JT
Email: cyber_saver@hotmail.com
Tuning: Standard

Intro:
e|------------------------------------------------------------------------|
B|------------------------------------------------------------------------|
G|------------------------------------------------------------------------|
D|--7-7\--9-------9/7-7--9------------------------------------------------|
A|--7-7\--9-------9/7-7--9------------------------------------------------|
E|--5-5\--7-------7/5-5—-7------------------------------------------------|

Intro bridge: Spelas 4 gånger:
e|------------------------------------------------------------------------|
B|------------------------------------------------------------------------|
G|------------------------------------------------------------------------|
D|--7-7\--9-9-9-9-9-9-9---------------------------------------------------|
A|--7-7\--9-9-9-9-9-9-9—--------------------------------------------------|
E|--5-5\--7-7-7-7-7-7-7---------------------------------------------------|

Vers del 1: Spelas 2 gånger
e|------------------------------------------------------------------------|
B|------------------------------------------------------------------------|
G|------------------------------------------------------------------------|
D|--7-7\--9-9-9-9-9-9-9---------------------------------------------------|
A|--7-7\--9-9-9-9-9-9-9—--------------------------------------------------|
E|--5-5\--7-7-7-7-7-7-7---------------------------------------------------|

Vers del 2: Då han börjar sjunga, ”För gud gillar inte fattiga…”
e|------------------------------------------------------------------------|
B|------------------------------------------------------------------------|
G|---7-7-7-7-7-7---------------9-9-9-9-9-9--111111-111111-11-11-11--------|
D|---7-7-7-7-7-7--7-7-7-7-7-7--9-9-9-9-9-9--111111-111111-11-11-11--------|
A|---5-5-5-5-5-5--7-7-7-7-7-7--7-7-7-7-7-7--9-9-9---9—9-9--9-9-9—9--------|
E|----------------5-5-5-5-5-5---------------------------------------------|

Vers del 3: Då han börjar sjunga, “Å inte fan gillar han dig…”
e|------------------------------------------------------------------------|
B|------------------------------------------------------------------------|
G|---7-7-7-7-7--6-6-6-6-6-6-6---------------------------------------------|
D|---7-7-7-7-7--6-6-6-6-6-6-6—x2------------------------------------------|
A|---5-5-5-5-5--4-4-4-4-4-4-4---------------------------------------------|
E|------------------------------------------------------------------------|

Refräng: Då han sjunger, “Häng gud!”
e|------------------------------------------------------------------------|
B|------------------------------------------------------------------------|
G|------------------------------------------------------------------------|
D|--7-7\--9-9-9-9-9-9-9---------------------------------------------------|
A|--7-7\--9-9-9-9-9-9-9—--------------------------------------------------|
E|--5-5\--7-7-7-7-7-7-7---------------------------------------------------|

Allting upprepas sen en gång till innan solot. Men eftersom jag inte är bra på att tabba 
så uteblir tyvärr solot och vi hoppar direkt till outrot

Outro: Under outrot spelas exakt samma sak som i refrängen och i intro-bridgen en jävla 
gånger.

e|------------------------------------------------------------------------|
B|------------------------------------------------------------------------|
G|------------------------------------------------------------------------|
D|--7-7\--9-9-9-9-9-9-9--7-7\--9-9-9-9-9-9-9------------------------------|
A|--7-7\--9-9-9-9-9-9-9—-7-7\--9-9-9-9-9-9-9------------------------------|
E|--5-5\--7-7-7-7-7-7-7--5-5\--7-7-7-7-7-7-7------------------------------|

HÄNG HAN HÖGT!


| /  slide up
| \  slide down
| h  hammer-on
| p  pull-off
| ~  vibrato
| +  harmonic
| x  Mute note
===========================================================================
Tap to rate this tab
# A B C D E F G H I J K L M N O P Q R S T U V W X Y Z