Song name
# A B C D E F G H I J K L M N O P Q R S T U V W X Y Z

Ebba Gron - Were Only In It For The Drugs tab

Spår #1 på albumet "We're Only In It For The Drugs" 1979.
Låt: We're Only In It For The Drugs No.1
Artist: Ebba Grön
Text & musik av Ebba Grön

Det här är som jag spelar låten och jag tycker det låter helt rätt. När det gäller 
kompet så kan du improvisera lite. Enkel och rolig att spela, bara att köra.

Intro
e|---------------------------------------------------------------------------|
B|---------------------------------------------------------------------------|
G|---9-9-9---------9-9-9-9-9-9---9-9-9---------9-9-9-9-9-9-9-----------------|
D|---9-9-9--9-9-9--9-9-9-9-9-9---9-9-9--9-9-9--9-9-9-9-9-9-9--x-2------------|
A|---7-7-7--9-9-9--7-7-7-7-7-7---7-7-7--9-9-9--7-7-7-7-7-7-7-----------------|
E|----------7-7-7-----------------------7-7-7--------------------------------|


Refräng riff 1
e|---------------------------------------------------------------------------|
B|---------------------------------------------------------------------------|
G|--9-9-------9-9-------9-9-------9-9-9-9-9----------------------------------|
D|--9-9--9-9--9-9--9-9--9-9--9-9--9-9-9-9-9----------------------------------|
A|--7-7--9-9--7-7--9-9--7-7--9-9--7-7-7-7-7----------------------------------|
E|-------7-7-------7-7-------7-7---------------------------------------------|
Det finns inget att göra i den här trista förorten, det finns ingenting här för oss

Refräng riff 2
e|---------------------------------------------------------------------------|
B|---------------------------------------------------------------------------|
G|--9-9-------9-9--------------------9-9-9-9-9-------------------------------|
D|--9-9--9-9--9-9--6-6-6---7-7--9-9--9-9-9-9-9-------------------------------|
A|--7-7--9-9--7-7--6-6-6---7-7--9-9--7-7-7-7-7-------------------------------|
E|-------7-7-------4-4-4---5-5--7-7------------------------------------------|
Nä ursäkta jag överdrev litegrann, vi kan ju knarka, supa å slåss

Refräng riff 1
e|---------------------------------------------------------------------------|
B|---------------------------------------------------------------------------|
G|--9-9-------9-9-------9-9-------9-9-9-9-9----------------------------------|
D|--9-9--9-9--9-9--9-9--9-9--9-9--9-9-9-9-9----------------------------------|
A|--7-7--9-9--7-7--9-9--7-7--9-9--7-7-7-7-7----------------------------------|
E|-------7-7-------7-7-------7-7---------------------------------------------|
Så har det alltid varit här ute, ingen jävel har brytt sej om oss

Refräng riff 2
e|---------------------------------------------------------------------------|
B|---------------------------------------------------------------------------|
G|--9-9-------9-9--------------------9-9-9-9-9-------------------------------|
D|--9-9--9-9--9-9--6-6-6---7-7--9-9--9-9-9-9-9-------------------------------|
A|--7-7--9-9--7-7--6-6-6---7-7--9-9--7-7-7-7-7-------------------------------|
E|-------7-7-------4-4-4---5-5--7-7------------------------------------------|
Man ska va som en zombie, va nöjd med sin lott å aldrig fråga om nåt

Mellanriff
e|---------------------------------------------------------------------------|
B|---------------------------------------------------------------------------|
G|---------------------------------------------------------------------------|
D|---7-7--9-9-9-9---7-7--9-9-9-9---7-7---9-9-9-9---7-7---9-9-9-9-------------|
A|---7-7--9-9-9-9---7-7--9-9-9-9---7-7---9-9-9-9---7-7---9-9-9-9-------------|
E|---5-5--7-7-7-7---5-5--7-7-7-7---5-5---7-7-7-7---5-5---7-7-7-7-------------|

Vers riff 1:
e|---------------------------------------------------------------------------|
B|---------------------------------------------------------------------------|
G|---9-9-9-9-9-9-9-9-9-9-----------------------------------------------------|
D|---9-9-9-9-9-9-9-9-9-9--9-9-9-9-9-9-9-9-9-9--x-2---------------------------|
A|---7-7-7-7-7-7-7-7-7-7--9-9-9-9-9-9-9-9-9-9--------------------------------|
E|------------------------7-7-7-7-7-7-7-7-7-7--------------------------------|
Vi var trötta på tunnelbanan, hade spel på monotonin
Dom här döda sovstäderna där folk inte rör en min

Vers riff 2:
e|---------------------------------------------------------------------------|
B|---------------------------------------------------------------------------|
G|-------------------------7-7-7-7-7-7---------------------------------------|
D|---9-9-9-9-9--7-7-7-7-7--7-7-7-7-7-7--5-5-5-5-5----------------------------|
A|---9-9-9-9-9--7-7-7-7-7--5-5-5-5-5-5--5-5-5-5-5----------------------------|
E|---7-7-7-7-7--5-5-5-5-5---------------3-3-3-3-3----------------------------|
Vi ville bara ha ett plejs för såna som oss

Vers riff 3:
e|---------------------------------------------------------------------------|
B|---------------------------------------------------------------------------|
G|-------------------------7-7-7-7-7-7---------------------------------------|
D|---9-9-9-9-9--7-7-7-7-7--7-7-7-7-7-7--7-7-7-7-7-7--------------------------|
A|---9-9-9-9-9--7-7-7-7-7--5-5-5-5-5-5--7-7-7-7-7-7--------------------------|
E|---7-7-7-7-7--5-5-5-5-5---------------5-5-5-5-5-5--------------------------|
Vi ville bara ha nånting för oss

Vers riff 1:
e|---------------------------------------------------------------------------|
B|---------------------------------------------------------------------------|
G|---9-9-9-9-9-9-9-9-9-9-----------------------------------------------------|
D|---9-9-9-9-9-9-9-9-9-9--9-9-9-9-9-9-9-9-9-9--x-2---------------------------|
A|---7-7-7-7-7-7-7-7-7-7--9-9-9-9-9-9-9-9-9-9--------------------------------|
E|------------------------7-7-7-7-7-7-7-7-7-7--------------------------------|
Vi var trötta på zombielivet och att aldrig vänta på nåt,
att bara hänga runt och glo, sen plötsligt har dagen gått

Vers riff 2:
e|---------------------------------------------------------------------------|
B|---------------------------------------------------------------------------|
G|-------------------------7-7-7-7-7-7---------------------------------------|
D|---9-9-9-9-9--7-7-7-7-7--7-7-7-7-7-7--5-5-5-5-5----------------------------|
A|---9-9-9-9-9--7-7-7-7-7--5-5-5-5-5-5--5-5-5-5-5----------------------------|
E|---7-7-7-7-7--5-5-5-5-5---------------3-3-3-3-3----------------------------|
Vi ville bara ha ett plejs för såna som oss

Vers riff 3:
e|---------------------------------------------------------------------------|
B|---------------------------------------------------------------------------|
G|-------------------------7-7-7-7-7-7---------------------------------------|
D|---9-9-9-9-9--7-7-7-7-7--7-7-7-7-7-7--7-7-7-7-7-7--------------------------|
A|---9-9-9-9-9--7-7-7-7-7--5-5-5-5-5-5--7-7-7-7-7-7--------------------------|
E|---7-7-7-7-7--5-5-5-5-5---------------5-5-5-5-5-5--------------------------|
Vi ville bara ha nånting för oss

Refräng riff 1
e|---------------------------------------------------------------------------|
B|---------------------------------------------------------------------------|
G|--9-9-------9-9-------9-9-------9-9-9-9-9----------------------------------|
D|--9-9--9-9--9-9--9-9--9-9--9-9--9-9-9-9-9----------------------------------|
A|--7-7--9-9--7-7--9-9--7-7--9-9--7-7-7-7-7----------------------------------|
E|-------7-7-------7-7-------7-7---------------------------------------------|
Det finns inget att göra i den här trista förorten, det finns ingenting här för oss

Refräng riff 2
e|---------------------------------------------------------------------------|
B|---------------------------------------------------------------------------|
G|--9-9-------9-9--------------------9-9-9-9-9-------------------------------|
D|--9-9--9-9--9-9--6-6-6---7-7--9-9--9-9-9-9-9-------------------------------|
A|--7-7--9-9--7-7--6-6-6---7-7--9-9--7-7-7-7-7-------------------------------|
E|-------7-7-------4-4-4---5-5--7-7------------------------------------------|
Nä ursäkta jag överdrev litegrann, vi kan ju knarka, supa å slåss

Refräng riff 1
e|---------------------------------------------------------------------------|
B|---------------------------------------------------------------------------|
G|--9-9-------9-9-------9-9-------9-9-9-9-9----------------------------------|
D|--9-9--9-9--9-9--9-9--9-9--9-9--9-9-9-9-9----------------------------------|
A|--7-7--9-9--7-7--9-9--7-7--9-9--7-7-7-7-7----------------------------------|
E|-------7-7-------7-7-------7-7---------------------------------------------|
Så har det alltid varit här ute, ingen jävel har brytt sej om oss

Refräng riff 2
e|---------------------------------------------------------------------------|
B|---------------------------------------------------------------------------|
G|--9-9-------9-9--------------------9-9-9-9-9-------------------------------|
D|--9-9--9-9--9-9--6-6-6---7-7--9-9--9-9-9-9-9-------------------------------|
A|--7-7--9-9--7-7--6-6-6---7-7--9-9--7-7-7-7-7-------------------------------|
E|-------7-7-------4-4-4---5-5--7-7------------------------------------------|
Man ska va som en zombie, va nöjd med sin lott å aldrig fråga om nåt

Mellanriff
e|---------------------------------------------------------------------------|
B|---------------------------------------------------------------------------|
G|---------------------------------------------------------------------------|
D|---7-7--9-9-9-9---7-7--9-9-9-9---7-7---9-9-9-9---7-7---9-9-9-9-------------|
A|---7-7--9-9-9-9---7-7--9-9-9-9---7-7---9-9-9-9---7-7---9-9-9-9-------------|
E|---5-5--7-7-7-7---5-5--7-7-7-7---5-5---7-7-7-7---5-5---7-7-7-7-------------|

Vers riff 1:
e|---------------------------------------------------------------------------|
B|---------------------------------------------------------------------------|
G|---9-9-9-9-9-9-9-9-9-9-----------------------------------------------------|
D|---9-9-9-9-9-9-9-9-9-9--9-9-9-9-9-9-9-9-9-9--x-2---------------------------|
A|---7-7-7-7-7-7-7-7-7-7--9-9-9-9-9-9-9-9-9-9--------------------------------|
E|------------------------7-7-7-7-7-7-7-7-7-7--------------------------------|
Vi började med konserter, det va band och det kom folk
Vi tyckte det gick jävligt bra, vi började få flyt

Vers riff 2:
e|---------------------------------------------------------------------------|
B|---------------------------------------------------------------------------|
G|-------------------------7-7-7-7-7-7---------------------------------------|
D|---9-9-9-9-9--7-7-7-7-7--7-7-7-7-7-7--5-5-5-5-5----------------------------|
A|---9-9-9-9-9--7-7-7-7-7--5-5-5-5-5-5--5-5-5-5-5----------------------------|
E|---7-7-7-7-7--5-5-5-5-5---------------3-3-3-3-3----------------------------|
Det tyckte inte den svenska byråkratin

Vers riff 3:
e|---------------------------------------------------------------------------|
B|---------------------------------------------------------------------------|
G|-------------------------7-7-7-7-7-7---------------------------------------|
D|---9-9-9-9-9--7-7-7-7-7--7-7-7-7-7-7--7-7-7-7-7-7--------------------------|
A|---9-9-9-9-9--7-7-7-7-7--5-5-5-5-5-5--7-7-7-7-7-7--------------------------|
E|---7-7-7-7-7--5-5-5-5-5---------------5-5-5-5-5-5--------------------------|
Det tyckte inte vår stolta maskin

Vers riff 1:
e|---------------------------------------------------------------------------|
B|---------------------------------------------------------------------------|
G|---9-9-9-9-9-9-9-9-9-9-----------------------------------------------------|
D|---9-9-9-9-9-9-9-9-9-9--9-9-9-9-9-9-9-9-9-9--x-2---------------------------|
A|---7-7-7-7-7-7-7-7-7-7--9-9-9-9-9-9-9-9-9-9--------------------------------|
E|------------------------7-7-7-7-7-7-7-7-7-7--------------------------------|
Dom sa: "Stopp, det här verkar vara rena jävla anarkin
Dessutom uppför ni er som nåra jävla svin"

Vers riff 2:
e|---------------------------------------------------------------------------|
B|---------------------------------------------------------------------------|
G|-------------------------7-7-7-7-7-7---------------------------------------|
D|---9-9-9-9-9--7-7-7-7-7--7-7-7-7-7-7--5-5-5-5-5----------------------------|
A|---9-9-9-9-9--7-7-7-7-7--5-5-5-5-5-5--5-5-5-5-5----------------------------|
E|---7-7-7-7-7--5-5-5-5-5---------------3-3-3-3-3----------------------------|
Det tyckte alltså den svenska byråkratin

Vers riff 3:
e|---------------------------------------------------------------------------|
B|---------------------------------------------------------------------------|
G|-------------------------7-7-7-7-7-7---------------------------------------|
D|---9-9-9-9-9--7-7-7-7-7--7-7-7-7-7-7--7-7-7-7-7-7--------------------------|
A|---9-9-9-9-9--7-7-7-7-7--5-5-5-5-5-5--7-7-7-7-7-7--------------------------|
E|---7-7-7-7-7--5-5-5-5-5---------------5-5-5-5-5-5--------------------------|
Det tyckte alltså vår stolta maskin

Refräng riff 1
e|---------------------------------------------------------------------------|
B|---------------------------------------------------------------------------|
G|--9-9-------9-9-------9-9-------9-9-9-9-9----------------------------------|
D|--9-9--9-9--9-9--9-9--9-9--9-9--9-9-9-9-9----------------------------------|
A|--7-7--9-9--7-7--9-9--7-7--9-9--7-7-7-7-7----------------------------------|
E|-------7-7-------7-7-------7-7---------------------------------------------|
Men det finns ju diskotek förstås
och det finns massor av annan skit

Refräng riff 2
e|---------------------------------------------------------------------------|
B|---------------------------------------------------------------------------|
G|--9-9-------9-9--------------------9-9-9-9-9-------------------------------|
D|--9-9--9-9--9-9--6-6-6---7-7--9-9--9-9-9-9-9-------------------------------|
A|--7-7--9-9--7-7--6-6-6---7-7--9-9--7-7-7-7-7-------------------------------|
E|-------7-7-------4-4-4---5-5--7-7------------------------------------------|
Där kan vi häcka bäst fan vi vill
men i huvet står det still

Refräng riff 1
e|---------------------------------------------------------------------------|
B|---------------------------------------------------------------------------|
G|--9-9-------9-9-------9-9-------9-9-9-9-9----------------------------------|
D|--9-9--9-9--9-9--9-9--9-9--9-9--9-9-9-9-9----------------------------------|
A|--7-7--9-9--7-7--9-9--7-7--9-9--7-7-7-7-7----------------------------------|
E|-------7-7-------7-7-------7-7---------------------------------------------|
Där kan vi gå som zombies
medan muzaken spyr floder av skit

Refräng riff 2
e|---------------------------------------------------------------------------|
B|---------------------------------------------------------------------------|
G|--9-9-------9-9--------------------9-9-9-9-9-------------------------------|
D|--9-9--9-9--9-9--6-6-6---7-7--9-9--9-9-9-9-9-------------------------------|
A|--7-7--9-9--7-7--6-6-6---7-7--9-9--7-7-7-7-7-------------------------------|
E|-------7-7-------4-4-4---5-5--7-7------------------------------------------|
Där kan vi sluta tänka
så får dom som dom vill

Vers riff 2:
e|---------------------------------------------------------------------------|
B|---------------------------------------------------------------------------|
G|-------------------------7-7-7-7-7-7---------------------------------------|
D|---9-9-9-9-9--7-7-7-7-7--7-7-7-7-7-7--5-5-5-5-5----------------------------|
A|---9-9-9-9-9--7-7-7-7-7--5-5-5-5-5-5--5-5-5-5-5----------------------------|
E|---7-7-7-7-7--5-5-5-5-5---------------3-3-3-3-3----------------------------|
Därute kan vi viska medan tunnelbanan går förbi

Vers riff 3:
e|---------------------------------------------------------------------------|
B|---------------------------------------------------------------------------|
G|-------------------------7-7-7-7-7-7---------------------------------------|
D|---9-9-9-9-9--7-7-7-7-7--7-7-7-7-7-7--7-7-7-7-7-7--------------------------|
A|---9-9-9-9-9--7-7-7-7-7--5-5-5-5-5-5--7-7-7-7-7-7--------------------------|
E|---7-7-7-7-7--5-5-5-5-5---------------5-5-5-5-5-5--------------------------|
Du han ser så blå ut i ansiktet

Refräng riff 1, Refräng riff 2 x4
Tap to rate this tab
# A B C D E F G H I J K L M N O P Q R S T U V W X Y Z