Song name
# A B C D E F G H I J K L M N O P Q R S T U V W X Y Z

Ebba Gron - Ung Och Kat tab

----------------------------------------------------------------------------
			     Ung och Kåt - Ebba Grön
---------------------------------------------------------------------------
Tabbed by: Hector
Email: heckee@gmail.com

Tuning: Standard tuning
How to play it.

 /  slide up
 \  slide down
 h  hammer-on
 p  pull-off
 ~  vibrato
 +  harmonic
 x  Palm mute



Intro:
e|----------------------------------------------------------------------|
B|----------------------------------------------------------------------|
G|----------------------------------------------------------------------|
D|----------------------2-22--------------------------------------------|
A|-----0-0----0-0-------0-00-000-------0----0---------------------------|
E|--0/2----0/2---------------222-00-0/2--0/2----------------------------|


e|----------------------------------------------------------------------|
B|----------------------------------------------------------------------|
G|----------------------------------------------------------------------|
D|----------------------2-22--------------------------------------------|
A|-----0-0----0-0-------0-00-000-------0----0---------------------------|
E|--0/2----0/2---------------222-00-0/2--0/2----------------------------|


Inte säker på denna.
Vers:
"Jag vill bara känna köttets lustar..."
e|-----------------------------------------|
B|-----------------------------------------|
G|--------------2x2x2x2--------------------|
D|---2-xxxxxxxx-0x0x0x0--------------------|
A|---0-xxxxxxxx----------------------------|
E|-----------------------------------------|

Så.
Tap to rate this tab
# A B C D E F G H I J K L M N O P Q R S T U V W X Y Z