Song name
# A B C D E F G H I J K L M N O P Q R S T U V W X Y Z

Ebba Gron - Bevapna Er tab

Verse and chorus:
Am   F    C    G

Bridge:
E        F

Solo:
E-8-5-----------------------------------------5----|
B--------8p5------------8-----------------------5--|
G------------7-7b---(7)-7br-5-------5---5-7b-------|
D-----------------------------7-5-7---7------------|
A--------------------------------------------------|
E--------------------------------------------------|

E----8---8---8---8----8---8--------------------------------------12--|
B-8b--8b--8b--8b---8b--8b---13-15b-15b-15b-15b-15b-15br-13-10-13-----|
G--------------------------------------------------------------------|
D--------------------------------------------------------------------|
A--------------------------------------------------------------------|
E--------------------------------------------------------------------|
Tap to rate this tab
# A B C D E F G H I J K L M N O P Q R S T U V W X Y Z