Song name
# A B C D E F G H I J K L M N O P Q R S T U V W X Y Z

Echo And The Bunnymen - Rescue tab

Hey this is the same person who tabbed out: Scissors in the sand
                                             What if we are  and .......
                                             Lips Like Sugar
          This ones called Rescue(Intro RIFF)
The name's chris by the way any questions : chrisfox666@msn.com


When u see two 5s or two 3s underneath each other play them as individual notes

Part 1


e|------------5------5-----------------------------------------------------------------|
B|------------5-----5--------8----5----8------5----8----5------------------------------|
G|-------------------------------------------------------------------------------------|
D|-------------------------------------------------------------------------------------|
A|-------------------------------------------------------------------------------------|
E|-------------------------------------------------------------------------------------|


Part 2

e|----------3------3-----2-----2-----2----------------------------------------------|
B|-----------3-----3--------3----3-----3--------------------------------------------|
G|----------------------------------------------------------------------------------|
D|----------------------------------------------------------------------------------|
A|----------------------------------------------------------------------------------|
E|----------------------------------------------------------------------------------|
Thanx Dudes
Tap to rate this tab
# A B C D E F G H I J K L M N O P Q R S T U V W X Y Z