Song name
# A B C D E F G H I J K L M N O P Q R S T U V W X Y Z

Echo And The Bunnymen - Ocean Rain tab

intro D  A   D   A   D   A

D
All at sea again
A                   D                           A    D
And now my hurricanes have brought down this ocean rain
A              D
To bathe me again
A             D
My ship's a sail
A                    D
Can you hear its tender frame
A                          D
Screaming from beneath the waves
Screaming from beneath the waves
D         A          Bm
All hands on deck at dawn
D         A          Bm
Sailing to sadder shores
D          A          G
Your port in my heavy storms
D          A          Bm
Harbours the blackest thoughts
same as other verse
I'm at sea again
And now your hurricanes have brought down this ocean rain
To bathe me again
My ship's a sail
Can you hear its tender frame
Screaming from beneath the waves
Screaming from beneath the waves...

after harbours the blackest thought solo 1
E--------------------------------------------------------------|
A--------------------------------------------------------------|
D--------7---8-7--------7---8---10-----------------------------|
G-7h9p7----------7h9p7-----------------------------------------|
B--------------------------------------------------------------|
e--------------------------------------------------------------|

solo 2 starts at my ships a sail
E--------------------------------------------------------------|
A--------------------------------------------------------------|
D--------------------------------------------------------------|
G--------------------------------------------------------------|
B--1515151515151515151515151515---13131313131313131313131313---|
E--------------------------------------------------------------|
repeat as many times

same as other corus
All hands on deck at dawn
Sailing to sadder shores
Your port in my heavy storms
Harbours the blackest thoughts
solo3
E-------------------------------------------------------------------------|
A-------------------------------------------------------------------------|
D------------------------------------------------repeat--twice------------|
G--7----9---------------7---9---------------------------------------------|
B-----------7----8---7-----------7---8--10---12---------------------------|
e-------------------------------------------------------------------------|

solo 4
-----------------------------------------------------------------------------|
-----------------------------------------------------------------------------|
-----------------------------------------------------------------------------|
-----------------------------------------------------------------------------|
----11---11---11--10--8---10----11~~--11-~~--11~~-s-15-----------------------|
-----------------------------------------------------------------------------|
repeat solo 3

same as verses with solos
All hands on deck at dawn
Sailing to sadder shores
Your port in my heavy storms
Harbours the blackest thoughts

All at sea again
And now my hurricanes have brought down this ocean rain
To bathe me again
My ship's a sail
Hear its tender frame
Screaming from beneath the waves
Screaming from beneath your waves
Screaming from beneath the waves
Screaming from beneath the waves

All hands on deck at dawn
Sailing to sadder shores
Your port in my heavy storms
Harbours the blackest thoughts
Tap to rate this tab
# A B C D E F G H I J K L M N O P Q R S T U V W X Y Z