Song name
# A B C D E F G H I J K L M N O P Q R S T U V W X Y Z

Echo And The Bunnymen - Altamont tab

Another Great Song By The Bunnymen
By Chris Fox
I Met Will Twice

VERSE CHORDS: D,F,C,
CHORUS CHORDS: G,C
Ddnt mind if i do etc: F,G, F,G


The riff:

e|------------------------15--------13--------------------------------------------|
B|---15-----13-----15-----------------------15-------13-----15----17   15---------|
G|--------------------------------------------------------------------------------|
D|--------------------------------------------------------------------------------|
A|--------------------------------------------------------------------------------|
E|--------------------------------------------------------------------------------|

If Your PLaying Acousticly Its easier to play it like this:

e|-------------------------------------------------------------------------------------|
B|-------------------------------8------6----------------------------------------------|
G|-------7--------5-------7--------------------7----5----7------9-------7--------------|
D|-------------------------------------------------------------------------------------|
A|-------------------------------------------------------------------------------------|
E|-------------------------------------------------------------------------------------|

There You Go ALATMONT
Tap to rate this tab
 
# A B C D E F G H I J K L M N O P Q R S T U V W X Y Z