Song name
# A B C D E F G H I J K L M N O P Q R S T U V W X Y Z

Echobrain - Anjali tab

Author/Artist: 	Echobrain
Title: 		Anjali
Album: 		Echobrain
Transcribed by: hbog (hboghbog@gmail.com)

Tuning: Standard

The solo starts at 3:24 into the song

E||--------------------------------------------------------------------|
B||--------------------------------------5-7-5-4-5-4---4---------------|
G||------------------------/6-5------5-6-------------6---5-6-6---------|
D||---4br--2----4br--2----------5--------------------------------------|
A||--------------------------------------------------------------------|
E||--------------------------------------------------------------------|

E||--------------------------------------------------------------------|
B||--------------------------------------------------------------------|
G||---9p8-9--9p8-9----9p8-8--/11---------------------------------------|
D||--------------------------------------------------------------------|
A||--------------------------------------------------------------------|
E||--------------------------------------------------------------------|


E||--------------------------------------------------------------------|
B||-12b--12-10-9----9h10p9----9-----------9h10~-9----------------------|
G||--------------11--------11---9----9-11---------11-9-8h9p8-----------|
D||-------------------------------11-----------------------------------|
A||--------------------------------------------------------------------|
E||--------------------------------------------------------------------|


E||--------------------------------------------------------------------|
B||--9h10p9----9------9h10p9----9-10-12--10-9--------------------------|
G||---------11---------------11---------------11-9/8/9-11--9-8-9-6-----|
D||--------------------------------------------------------------------|
A||--------------------------------------------------------------------|
E||--------------------------------------------------------------------|


E||--------------------------------------------------------------------|
B||--------------------------------------------------------------------|
G||-8-9-6----8-9-8----8----8-9-8----8-----8-9-8h9p8----8-----8-9-8-/11-|
D||----------------11---11-------11----11-----------11----11-----------|
A||--------------------------------------------------------------------|
E||--------------------------------------------------------------------|

                       x4
E||----------------------|---------------------------------------------|
B||--10--12--14---13--9--|-10--12--14---13-/16----16h17-16---14h16-14--|
G||*--------------------*|---------------------------------------------|
D||*--------------------*|---------------------------------------------|
A||----------------------|---------------------------------------------|
E||----------------------|---------------------------------------------|

E||--------------------------------------------------------------------|
B||--13h14-13----------------------------------------------------------|
G||-----------14-13/11---11~-9-8-6---11~-9-8-6---11br-9-8-9-6----------|
D||--------------------------------------------------------------------|
A||--------------------------------------------------------------------|
E||--------------------------------------------------------------------|

E||--------------------------------------------------------------------|
B||--------------------------------------------------------------------|
G||--11br-9-8-9--------------------------------------------------------|
D||--------------------------------------------------------------------|
A||--------------------------------------------------------------------|
E||--------------------------------------------------------------------|
Tap to rate this tab
# A B C D E F G H I J K L M N O P Q R S T U V W X Y Z