Echoes Of Yul - Clear tab

Band/Song: Echoes of Yul - Clear
Album: Echoes Of Yul
Official Website: http://www.myspace.com/echoesofyul

Tabbed by: RhoninX - http://profile.ultimate-guitar.com/RhoninX/
Email: lisekpl(a)o2.pl
Date: 03.10.2010


Main Riff

     PM PM PM PM      PM PM    PM PM PM PM      PM PM  
     E  E  E  E  Q    E  E     E  E  E  E  Q    E  E   
D||-------------------------|-------------------------|
A||-------------------------|-------------------------|
F||--------------4----------|-------------------------|
C||-------------------------|--------------5----------|
G||--2--2--2--2-------2--2--|--2--2--2--2-------2--2--|
C||--2--2--2--2-------2--2--|--2--2--2--2-------2--2--|


  PM PM PM PM      PM PM    PM PM PM PM              
  E  E  E  E  Q    E  E     E  E  E  E  E  E  E  E   
-------------------------|--------------------------|
-------------------------|--------------------------|
-------------------------|--------------------------|
-------------------------|--------------3--2--3--2--|
--2--2--2--2--5----2--2--|--2--2--2--2--3--2--3--2--|
--2--2--2--2-------2--2--|--2--2--2--2--3--2--3--2--|



Break

  PM PM PM PM PM PM PM PM    PM PM PM PM PM PM PM PM  
  E  E  E  E  E  E  E  E     E  E  E  E  E  E  E  E   
--------------------------|--------------------------|
--------------------------|--------------------------|
--------------------------|--------------------------|
--------------------------|--------------------------|
--2--2--2--2--4--4--4--4--|--5--5--5--5--7--7--7--7--|
--2--2--2--2--4--4--4--4--|--5--5--5--5--7--7--7--7--|



Small tapping after break

      T  T    T    T     T    T     T     
  E   E  E    E    E     E    E     E     
----------------------------------------||
--9--10--9--(10)--(9)--(10)--(9)--(10)--||
----------------------------------------||
----------------------------------------||
----------------------------------------||
----------------------------------------||




Duration Legend
---------------
Q - quarter
E - 8th


Tablature Legend
----------------
PM - palm mute
T - tapping
Tap to rate this tab
 
# A B C D E F G H I J K L M N O P Q R S T U V W X Y Z