Song name
# A B C D E F G H I J K L M N O P Q R S T U V W X Y Z

Echoing August - Skin To Skin tab

Here's a song I've wanted to learn and give to everyone else... so here it is;

Intro:
      "Calm down he's just a friend, flesh is warm..." (3rd round of intro)
eb|----------------------------------------------------|
Bb|--------------------------------------------|-------|
Gb|.-----12-------12----------------10----10--.|--10x--|
Db|.--------12-------12----12----10----10-----.|-------|
Ab|---10-------10-------10-----8---------------|-------|
Eb|----------------------------------------------------|

Pre Chorus:

       "Heart ache is louder when its skin to skin..."
eb|----------|
Bb|----------|
Gb|---8---9--|
Db|---8---9--|
Ab|---6---8--|
Eb|----------|

eb|----------|
Bb|----------|
Gb|---12-----|   4x
Db|---12-----|
Ab|---10-----|
Eb|----------|

Verse:
       "Bruised knees and fingertips..."
eb|------------------------|
Bb|-----------------|------|
Gb|-.------8---10--.|--4x--|
Db|-.--5---8---10--.|------|
Ab|----5---6---8----|------|
Eb|----3-------------------|

       "Heart ache is louder when its skin to skin..."
eb|----------|
Bb|----------|
Gb|---8---9--|
Db|---8---9--|
Ab|---6---8--|
Eb|----------|

Chorus:
       "And I'll do this right now..."
eb|---------|---------|---------|----------|
Bb|---------|---------|---------|----------|
Gb|------8--|---------|------8--|------10--|
Db|--5-8-8--|--5-8-3--|--5-8-8--|--5-8-10--|
Ab|--5-8-6--|--5-8-3--|--5-8-6--|--5-8-8---|
Eb|--3-6----|--3-6-1--|--3-6----|--3-6-----|

       "Heart ache is louder when its skin to skin..."
eb|----------|
Bb|----------|
Gb|---8---9--|
Db|---8---9--|
Ab|---6---8--|
Eb|----------|

Chorus:
       "And I'll do this right now..."
eb|---------|---------|---------|----------|
Bb|---------|---------|---------|----------|
Gb|------8--|---------|------8--|------10--|
Db|--5-8-8--|--5-8-3--|--5-8-8--|--5-8-10--|
Ab|--5-8-6--|--5-8-3--|--5-8-6--|--5-8-8---|
Eb|--3-6----|--3-6-1--|--3-6----|--3-6-----|

eb|----------|
Bb|----------|
Gb|---12-----|   4x
Db|---12-----|
Ab|---10-----|
Eb|----------|

Verse:
      "One noch on a wooden door..."
eb|------------------------|
Bb|-----------------|------|
Gb|-.------8---10--.|--4x--|
Db|-.--5---8---10--.|------|
Ab|----5---6---8----|------|
Eb|----3-------------------|

       "Heart ache is louder when its skin to skin..."
eb|----------|
Bb|----------|
Gb|---8---9--|
Db|---8---9--|
Ab|---6---8--|
Eb|----------|

Chorus:
       "And I'll do this right now..."
eb|---------|---------|---------|----------|
Bb|---------|---------|---------|----------|
Gb|------8--|---------|------8--|------10--|
Db|--5-8-8--|--5-8-3--|--5-8-8--|--5-8-10--|
Ab|--5-8-6--|--5-8-3--|--5-8-6--|--5-8-8---|
Eb|--3-6----|--3-6-1--|--3-6----|--3-6-----|

eb|----------|
Bb|----------|
Gb|---12-----|   8x
Db|---12-----|
Ab|---10-----|
Eb|----------|

Chorus:
       "And I'll do this right now..."
eb|---------|---------|---------|----------|
Bb|---------|---------|---------|----------|
Gb|------8--|---------|------8--|------10--|      2x
Db|--5-8-8--|--5-8-3--|--5-8-8--|--5-8-10--|
Ab|--5-8-6--|--5-8-3--|--5-8-6--|--5-8-8---|
Eb|--3-6----|--3-6-1--|--3-6----|--3-6-----|

      "And I'll do what I wanna..."
eb|---------------|-------------|
Bb|---------------|-------------|
Gb|--------8--10--|----------8--|
Db|--5--8--8--10--|--5---8---8--|
Ab|--5--8--6--8---|--5---8---6--|
Eb|--3--6---------|--3---6------|
Tap to rate this tab
 
# A B C D E F G H I J K L M N O P Q R S T U V W X Y Z