Guitaretab - guitar tabs
Song name
# A B C D E F G H I J K L M N O P Q R S T U V W X Y Z
Home / E / Echos / Darkness tab

Echos - Darkness tab

This is Adrenaline's first song. It's pretty Snoyge. Check it yo!


INTRO
e|--------------------------------------|
b|--------------------------------------|
G|--------------------------------------|
D|-////---------------------------------|
A|-////557585585755575-8-8888877777h8p7-|
D|-////000000000000000-8-8888877777h8p7-|
   ^that's a pickslide

VERSE
|----------------------------|
|-6666666666666--------------|
|-7777777777777--------------|
|-77777777777778888877777877-|
|-55555555555558888877777877-|
|-00000000000008888877777877-|

PRECHORUS
|-------------------------|
|-------------------------|
|-------------------------|
|-55-55555-7-5-03030000---|
|-55-55555-7-5-03030000*3-|
|-55-55555-7-5-03030000*3-|

|---------------------------------|
|---------------------------------|
|---------------------------------|
|-55-555555-7-5-77-777-7-33-333-3-|
|-55-555555-7-5-77-777-7-33-333-3-|
|-55-555555-7-5-77-777-7-33-333-3-|
[ Tab from: http://www.guitaretab.com/e/echos/134094.html ]
CHORUS
|---------------------|
|---------------------|
|----10--10-9---------|
|-000--000---33-555-3-|
|-0008-0008-733-555-3-|
|-000--000---33-555-3-|

SOLO SECTION (I don't tab out solo's, my guitarist just improvises)
|----------------------------|
|-6666666666666--------------|
|-7777777777777--------------| x4
|-77777777777778888877777877-|
|-55555555555558888877777877-|
|-00000000000008888877777877-|

|-------------------------|
|-------------------------|
|-------------------------|
|-55-55555-7-5-03030000---|
|-55-55555-7-5-03030000*3-|
|-55-55555-7-5-03030000*3-|

|---------------------------------|
|---------------------------------|
|---------------------------------|
|-55-555555-7-5-77-777-7-33-333-3-|
|-55-555555-7-5-77-777-7-33-333-3-|
|-55-555555-7-5-77-777-7-33-333-3-|

CHORUS
|---------------------|
|---------------------|
|----10--10-9---------|
|-000--000---33-555-3-|
|-0008-0008-733-555-3-|
|-000--000---33-555-3-|

OUTRO
|--------------------------|
|--------------------------|
|-----------765-5-1097-7-7-|
|-0-0-023-3----------------|
|-0-0-023-3-543-3-8-75-5-5-|
|-0-0-023-3-0--------0-0-0-|