Song name
# A B C D E F G H I J K L M N O P Q R S T U V W X Y Z

Echosmith - Cool Kids tab

Tuning: Drop-D (capo on 1st fret)

. = palm mute
* = bar

hold bar on 6th fret while playing the last bit of the verse riff

Main Riff/Intro:
e|---------------------------------------------------------------------------|
B|---------------------------------------------------------------------------|
G|---------------------------------------------------------------------------|
D|---------------------------------------------------------------------------|
A|---------6---8---0---3---0-------------------------------------------------|
D|--3---6----------------------0---------------------------------------------|

Verses:
e|------------------------------------6--------------------------------------|
B|------------------------------------6--------------------------------------|
G|------------------------------------6--------------------------------------|
D|---10----10----8----8-----6-----6---6--------------------------------------|
A|-8-----8-----4----4-----4-----4-----6--0--0--------------------------------|
D|------------------------------------6-0--8---------------------------------|
   ...................................*......................................

Chorus:

Em -  033000 (bar low E string with your thumb)
C/B - x43000
G -   630000
C2 -  x65040

Em, C/B, G, C2
Tap to rate this tab
# A B C D E F G H I J K L M N O P Q R S T U V W X Y Z