Song name
# A B C D E F G H I J K L M N O P Q R S T U V W X Y Z

Echosmith - Cool Kids tab

-------------------------------------------------------------------------------
                             COOL KIDS - Echosmith
-------------------------------------------------------------------------------
Tabbed by: emilykf :)

This is NOT the official tab. I will post that one later, but this is an acoustic
version that is much easier. Please note that this was tabbed by ear,and won't 
sound absolutely perfect to the recording, but I think it's pretty close. I also 
think I talk too much.
Onward!

Tuning: Standard
Notes: You can palm mute if you like that sound. I typically palm mute the first
verse, and then leave the second verse open. Strum the chorus.




CAPO 1
(Em: 022030)

Chord position: Em
VERSE 1 "She sees them walking in a straight line,"
VERSE 2 "He sees them talking with a big smile,"
e|---------------------------------------------------------------------------|
B|--------3------------------------------------------------------------------|
G|------0--------------------------------------------------------------------|
D|---------------------------------------------------------------------------|
A|----2----------------------------------------------------------------------|
E|---------------------------------------------------------------------------|

(Cmaj7: 032030)
(G: 320030)

Chord position: Cmaj7 - G
VERSE 1 "That's not really her style."
VERSE 2 "but they haven't got a clue."
e|---------------------------------------------------------------------------|
B|--------3------------------------------------------------------------------|
G|------0------------------------0------------0------------------------------|
D|---------------------------------------------------------------------------|
A|----3------------------------2------------2--------------------------------|
E|---------------------------3------------3----------------------------------|

Chord position: Em
VERSE 1 "And they all got the same,"
VERSE 2 "Yeah they're living the good,"
e|---------------------------------------------------------------------------|
B|--------3------------------------------------------------------------------|
G|------0--------------------------------------------------------------------|
D|---------------------------------------------------------------------------|
A|----2----------------------------------------------------------------------|
E|---------------------------------------------------------------------------|

Chord position: Cmaj7 - G
VERSE 1 "heartbeat, but hers is falling behind."
VERSE 2 "life, can't see what he is going through."
e|---------------------------------------------------------------------------|
B|--------3------------------------------------------------------------------|
G|------0------------------------0------------0------------------------------|
D|---------------------------------------------------------------------------|
A|----3------------------------2------------2--------------------------------|
E|---------------------------3------------3----------------------------------|

Chord position: Em
VERSE 1 "Nothing in this world could,"
VERSE 2 "They're driving fast cars,"
e|---------------------------------------------------------------------------|
B|--------3------------------------------------------------------------------|
G|------0--------------------------------------------------------------------|
D|---------------------------------------------------------------------------|
A|----2----------------------------------------------------------------------|
E|---------------------------------------------------------------------------|

Chord position: Cmaj7 - G
VERSE 1 "ever bring them down,"
VERSE 2 "they don't know where they're going."
e|---------------------------------------------------------------------------|
B|--------3------------------------------------------------------------------|
G|------0------------------------0------------0------------------------------|
D|---------------------------------------------------------------------------|
A|----3------------------------2------------2--------------------------------|
E|---------------------------3------------3----------------------------------|

Chord position: Em
VERSE 1 "Yeah they're invincible,"
VERSE 2 "In the fast lane,"
e|---------------------------------------------------------------------------|
B|--------3------------------------------------------------------------------|
G|------0--------------------------------------------------------------------|
D|---------------------------------------------------------------------------|
A|----2----------------------------------------------------------------------|
E|---------------------------------------------------------------------------|

Chord position: Cmaj7 - G
VERSE 1 "and she's just in the background."
VERSE 2 "living life without knowing."
e|---------------------------------------------------------------------------|
B|--------3------------------------------------------------------------------|
G|------0------------------------0------------0------------------------------|
D|---------------------------------------------------------------------------|
A|----3------------------------2------------2--------------------------------|
E|---------------------------3------------3----------------------------------|

"And she says..." strum the chorus.
Tap to rate this tab
 
# A B C D E F G H I J K L M N O P Q R S T U V W X Y Z