Song name
# A B C D E F G H I J K L M N O P Q R S T U V W X Y Z

Echovalve - Radiate tab

Tabbed by Jamie Harris
Tuning 1/2 step down

Guitar 1 - Intro + Verse
---------------------------------------------------------|
---5-----5-----5-----7----------7------7-----------------|
----5-----5-----5-7---5--5----------------7--------------|
-----5-----5-----------5----12-7---12-7--7------12----12-|
-7------------------------------------------12-7--12-7---|
---------------------------------------------------------|
^^^^^^^^^^^^^^^^^^^^^^^^^^^^^^^^^^^^^^^^^^^^^^^^^^^^^^^^^
all harmonics

Guitar 2 0:26, part way through verse
---------------------------------------------------|
---------------------------------------------------|
---------------------------------------------------|
---4---4---4---4---4---4---4---4---4-4p2-2-2p0-0-0-|
--5---5-------5---5-------5---5--------------------|
-7---7---7---3---3---3---5---5---5-----------------|

That x 2 then

-----------------------------------------------------------------|
---2-----2----2---------------------2-----2----2----2-----2----2-|
-------------------2-----2----2----2-----2---------2-----2-------|
--4-----4---------0-----0---------0-----0-----0---4-----4-----4--|
-2-----2-----2---------------------------------------------------|
-----------------3-----3-----3-----------------------------------|
1 and 1/2 times

Leading into chorus
-------------------------------------|
-------------------------------------|
-------------------------------------|
-5/7-7-7-7/9-9-9-9/11-11-11-11-12-14-|
-x-x-x-x-x-x-x-x-x-x--x--x--x--x--x--|
-3/5-5-5-5/7-7-7-7/9--9--9--9--10-12-|

Chorus
Guitar 1
--------------------------------|
--------------------------------|
-----------------7--7-7---------|
-2--2-2--5--5-5--7--7-7--7--7-7-|
-2--2-2--5--5-5--5--5-5--7--7-7-|
-0--0-0--3--3-3----------5--5-5-|

I can't hear guitar 2 very well but seems just to be improvising
on doubled notes.

Verse 2 same as verse 1 but guitar 2 joins in straght away.

Chorus again

Bridge
Guitar 1
-----------------------------------------------------------------|
-----------------------------------------------------------------|
-4-4-4-4-4-4-4-4-2-2-2-2-2-2-2-2---------------------------------|
-4-4-4-4-4-4-4-4-2-2-2-2-2-2-2-2-5-5-5-5-5-5-5-5-2-2-2-2-2-2-2-2-|
-2-2-2-2-2-2-2-2-0-0-0-0-0-0-0-0-5-5-5-5-5-5-5-5-2-2-2-2-2-2-2-2-|
---------------------------------3-3-3-3-3-3-3-3-0-0-0-0-0-0-0-0-| x 2

Guitar 2
-----14-----14-12p10-10-14-14-14-12--12--14--14---|
---12-----12-----------------------12--12--12--12-|
-11-----11----------------------------------------|
--------------------------------------------------|
--------------------------------------------------|
--------------------------------------------------| then kind of muck around
						   with the last bit
x 2

Chorus agian

Outro
Guitar 2
---------------------|
---------------------|
-6-6-6-6-9-9-9-9-----|
-7-7-7-7-9-9-9-9-5~--|
-7-7-7-7-7-7-7-7-5~--|
-----------------3~--|

Guitar 1 on last chord
-------------|
-5-----------|
----5--7~----|
-------------|
-------------|
-------------| harmonics

The harmonics at the beginning may be a little off but just noodle with them
and it should get you close.
Tap to rate this tab
# A B C D E F G H I J K L M N O P Q R S T U V W X Y Z