Song name
# A B C D E F G H I J K L M N O P Q R S T U V W X Y Z

Econoline Crush - Get Out Of The Way tab

Help us improve GuitareTab! Take a short survey!
-------------------------------------------------------------------------------
			     Get Out of the Way - Econoline Crush
-------------------------------------------------------------------------------
Tabbed by: Alex T.
Email: alexitamlyn11@hotmail.com

Tuning: Drop C

  repeat 4x
e|-----------------------------------------------------------------------|
B|-----------------------------------------------------------------------|
G|--5/7-7-7-7--5/7-7-7-7-------------------------------------------------|
D|----------------------------5-5-5-5-6-6-5-3----------------------------|
A|--3/5-5-5-5--3/5-5-5-5------5-5-5-5-6-6-5-3----------------------------|
E|----------------------------5-5-5-5-6-6-5-3----------------------------|

  repeat 4x on forth time don't play the last 4 notes.
e|-----------------------------------------------------------------------|
B|-----------------------------------------------------------------------|
G|-----------------------------------------------------------------------|
D|----------------6-5-3-0------------------------------------------------|
A|----------------6-5-3-0------------------------------------------------|
E|--0-0-0-0-0-0-0-6-5-3-0------------------------------------------------|

  repeat 2x
e|-----------------------------------------------------------------------|
B|-----------------------------------------------------------------------|
G|--3-3-3-3-3-3-3-5-5-5-5-5-5-5--7-7-7---14-10--7-7-7---14-10------------|
D|-----------------------------------------------------------------------|
A|--1-1-1-1-1-1-1-3-3-3-3-3-3-3--5-5-5-0-12-8---5-5-5-0-12-8-------------|
E|-----------------------------------------------------------------------|

e|-----------------------------------------------------------------------|
B|-----------------------------------------------------------------------|
G|--3-3-3-3-3-3-3-5-5-5-5-5-5-5-2-2-2-2-2-2-2----------------------------|
D|------------------------------2-2-2-2-2-2-2-xxxxxxxx-------------------|
A|--1-1-1-1-1-1-1-3-3-3-3-3-3-3-0-0-0-0-0-0-0-xxxxxxxx-------------------|
E|--------------------------------------------xxxxxxxx-------------------|

e|-----------------------------------------------------------------------|
B|-----------------------------------------------------------------------|
G|--5/7-7-7-7--5/7-7-7-7-------------------------------------------------|
D|----------------------------5-5-5-5-6-6-5-3----------------------------|
A|--3/5-5-5-5--3/5-5-5-5------5-5-5-5-6-6-5-3----------------------------|
E|----------------------------5-5-5-5-6-6-5-3----------------------------|

 repeat 4x on forth time play random harmonics
e|-----------------------------------------------------------------------|
B|-----------------------------------------------------------------------|
G|-----------------------------------------------------------------------|
D|----------------6-5-3-0------------------------------------------------|
A|----------------6-5-3-0------------------------------------------------|
E|--0-0-0-0-0-0-0-6-5-3-0------------------------------------------------|

 repeat 2x
e|-----------------------------------------------------------------------|
B|-----------------------------------------------------------------------|
G|--3-3-3-3-3-3-3-5-5-5-5-5-5-5--7-7-7---14-10--7-7-7---14-10------------|
D|-----------------------------------------------------------------------|
A|--1-1-1-1-1-1-1-3-3-3-3-3-3-3--5-5-5-0-12-8---5-5-5-0-12-8-------------|
E|-----------------------------------------------------------------------|


e|-----------------------------------------------------------------------|
B|-----------------------------------------------------------------------|
G|--3-3-3-3-3-3-3-5-5-5-5-5-5-5-2-2-2-2-2-2-2----------------------------|
D|------------------------------2-2-2-2-2-2-2-xxxxxxxx-------------------|
A|--1-1-1-1-1-1-1-3-3-3-3-3-3-3-0-0-0-0-0-0-0-xxxxxxxx-------------------|
E|--------------------------------------------xxxxxxxx-------------------|

e|-----------------------------------------------------------------------|
B|-----------------------------------------------------------------------|
G|--5/7-7-7-7--5/7-7-7-7-------------------------------------------------|
D|----------------------------5-5-5-5-6-6-5-3----------------------------|
A|--3/5-5-5-5--3/5-5-5-5------5-5-5-5-6-6-5-3----------------------------|
E|----------------------------5-5-5-5-6-6-5-3----------------------------|

  repeat 8x
e|-----------------------------------------------------------------------|
B|-----------------------------------------------------------------------|
G|-----------------------------------------------------------------------|
D|----------------6-5-3-0------------------------------------------------|
A|----------------6-5-3-0------------------------------------------------|
E|----------------6-5-3-0------------------------------------------------|

 repeat 2x
e|-----------------------------------------------------------------------|
B|-----------------------------------------------------------------------|
G|--3-3-3-3-3-3-3-5-5-5-5-5-5-5--7-7-7---14-10--7-7-7---14-10------------|
D|-----------------------------------------------------------------------|
A|--1-1-1-1-1-1-1-3-3-3-3-3-3-3--5-5-5-0-12-8---5-5-5-0-12-8-------------|
E|-----------------------------------------------------------------------|

e|-----------------------------------------------------------------------|
B|-----------------------------------------------------------------------|
G|--3-3-3-3-3-3-3-5-5-5-5-5-5-5-2-2-2-2-2-2-2----------------------------|
D|------------------------------2-2-2-2-2-2-2-xxxxxxxx-------------------|
A|--1-1-1-1-1-1-1-3-3-3-3-3-3-3-0-0-0-0-0-0-0-xxxxxxxx-------------------|
E|--------------------------------------------xxxxxxxx-------------------|

e|-----------------------------------------------------------------------|
B|-----------------------------------------------------------------------|
G|--5/7-7-7-7--5/7-7-7-7-------------------------------------------------|
D|----------------------------5-5-5-5-6-6-5-3----------------------------|
A|--3/5-5-5-5--3/5-5-5-5------5-5-5-5-6-6-5-3----------------------------|
E|----------------------------5-5-5-5-6-6-5-3----------------------------| 

repeat 3x
e|-----------------------------------------------------------------------|
B|-----------------------------------------------------------------------|
G|-----------------------------------------------------------------------|
D|--0-0-0-0-3-3-3-3-5-5-5-5-6-6-6-6--------------------------------------|
A|--0-0-0-0-3-3-3-3-5-5-5-5-6-6-6-6--------------------------------------|
E|--0-0-0-0-3-3-3-3-5-5-5-5-6-6-6-6--------------------------------------|

e|-----------------------------------------------------------------------|
B|-----------------------------------------------------------------------|
G|-----------------------------------------------------------------------|
D|--7-7-7-7-5-5-5-5-3-3-3-3-2-2-2-2-6-6-5-3-0----------------------------|
A|--------------------------2-2-2-2-6-6-5-3-0----------------------------|
E|--5-5-5-5-3-3-3-3-1-1-1-1-0-0-0-0-6-6-5-3-0----------------------------|





| /  slide up
| \  slide down
| h  hammer-on
| p  pull-off
| ~  vibrato
| +  harmonic
| x  Mute note
===============================================================================
Related for Get Out Of The Way tab