Song name
# A B C D E F G H I J K L M N O P Q R S T U V W X Y Z

Econoline Crush - Nowhere Now tab

Standard tuning (e,a,d,g,b,e)


Main Riff / Verse (dist)
|---------3--------3--------3---------------|
|---------3--------3--------3---------------|
|-------------------------------------------|
|--22-222---22-222---22-222---2222----------|
|--22-222---22-222---22-222---2222----------|
|--00-000---00-000---00-000---0000--5-6-5-3-|
PM -- ---   -- ---   -- ---   ----

Prechorus (dist)
|----------------------------|
|----------------------------|
|----------------------------|
|-----7----5----8----7----5~-|
|-----7----5----8----7----5~-|
|--00-5-00-3-00-6-00-5-00-3~-|
PM --   --   --   --   --

verse

prechorus

Chorus (dist)
|------------|
|------------|
|------------|
|--7-10---2--|
|--7-10---2--|
|--5-8----0--|

prechorus riff

verse

prechorus riif to end
Tap to rate this tab
 
# A B C D E F G H I J K L M N O P Q R S T U V W X Y Z