Song name
# A B C D E F G H I J K L M N O P Q R S T U V W X Y Z

Ecw - Rvd Theme tab

this a really easy one to play i figured it out in minutes

drop the fat E string down to D

Intro
E|-------------------------------------------------------------------|
B|-------------------------------------------------------------------|
G|-------------------------------------------------------------------|
D|-2-2-2-5-2-2-5-2-2-5-5-4-4-2---------------------------------------|
A|-2-2-2-5-2-2-5-2-2-5-5-4-4-2---------------------------------------|
D|-2-2-2-5-2-2-5-2-2-5-5-4-4-2---------------------------------------|

chorus
E|-----------------------------------------------|
B|-----------------------------------------------|
G|-----------------------------------------------|
D|-2-2-5-8-8-7-6-6-5-4-4-------------------------|
A|-2-2-5-8-8-7-6-6-5-4-4-------------------------|
D|-2-2-5-8-8-7-6-6-5-4-4-------------------------|


if you have an questions or suggestions email me cackeykins@hotmail.com
Tap to rate this tab
# A B C D E F G H I J K L M N O P Q R S T U V W X Y Z