Song name
# A B C D E F G H I J K L M N O P Q R S T U V W X Y Z

Ecw - Escape tab

Help us improve GuitareTab! Take a short survey!
This is a song by ECW on there first album "Welcome" the band consists of Cj:
Drums/Lyrics, Eric: Bass/Vocals, and Will: Lead Guitar/Vocals. This is the first
song ever written by the band and is exceptional good considering its there first
song. The album has 8 other songs 123, Chicago, Reavell, Satisfied, Done, Link,
Dark-sun, and never ending night. this band has the styles of jimmy eat world and
sum 41 kinda mixed and youll love the great songs and will want to listen to them
again and again.


ESCAPE:

Intro:
-4-4-4-4-4-3-3-3-3-3-2-2-2-2-2-1-1-1-1-1-12-12-12-12-12-0---|
-4-4-4-4-4-3-3-3-3-3-2-2-2-2-2-1-1-1-1-1-12-12-12-12-12-0---|
-----------0-0-0-0-0-0-0-0-0-0-0-0-0-0-0-0--0--0--0--0--0---|
---------------------0-0-0-0-0-0-0-0-0-0-0--0--0--0--0--0---|
-------------------------------0-0-0-0-0-0--0--0--0--0--0---|
-----------------------------------------0--0--0--0--0--0---|

Verse 1:
-0x0x0-0-0x0x0x0-0-0x0x0-x0-0-0-x0-x0-x0-x0---|
-0x0x0-0-0x0x0x0-0-0x0x0-x0-0-0-x0-x0-x0-x0---|
-0x0x0-0-0x0x0x0-0-0x0x0-x0-0-0-x0-x0-x0-x0---|
-0x0x0-0-0x0x0x0-0-0x0x0-x0-0-0-x0-x0-x0-x0---|
-4x6x3-3-5x5x7x6-6-8x8x10x9-9-11x11x13x12x1---|

-0-0x0-0-0-0-0x0-0x0--0--0--0--0-x0--0-x0--0--0--0--0----|
-0-0x0-0-0-0-0x0-0x0--0--0--0--0-x0--0-x0--0--0--0--0----|
-0-0x0-0-0-0-0x0-0x0--0--0--0--0-x0--0-x0--0--0--0--0----|
-0-0x0-0-0-0-0x0-0x0--0--0--0--0-x0--0-x0--0--0--0--0----|
-4-4x6-6-6-6-6x8-8x10-10-10-10-10x12-12x14-14-14-14-14---|
-4-4x6-6-6-6-6x8-8x10-10-10-10-10x12-12x14-14-14-14-14---|

Bridge:
-4---------------------3---|
---3-----------------4-----|
-----4-------------3-------|
-------3---------4---------|
---------4-----3-----------|
-----------3-4-------------|

Verse 2:
-0-0x0-0-0-0-0x0-0x0--0--0--0--0-x0--0-x0--0--0--0--0----|
-0-0x0-0-0-0-0x0-0x0--0--0--0--0-x0--0-x0--0--0--0--0----|
-4-4x6-6-6-6-6x8-8x10-10-10-10-10x12-12x14-14-14-14-14---|
-4-4x6-6-6-6-6x8-8x10-10-10-10-10x12-12x14-14-14-14-14---|
-0-0x0-0-0-0-0x0-0x0--0--0--0--0-x0--0-x0--0--0--0--0----|
-0-0x0-0-0-0-0x0-0x0--0--0--0--0-x0--0-x0--0--0--0--0----|

Bridge 2:
-----------3-4-------------|
---------4-----3-----------|
-------3---------4---------|
-----4-------------3-------|
---3-----------------4-----|
-4---------------------3---|

Verse 3:
-4-4x6-6-6-6-6x8-8x10-10-10-10-10x12-12x14-14-14-14-14--0--0--0--0--0--0-|
-4-4x6-6-6-6-6x8-8x10-10-10-10-10x12-12x14-14-14-14-14--0--0--0--0--0--0-|
-0-0x0-0-0-0-0x0-0x0--0--0--0--0-x0--0-x0--0--0--0--0---4--4--6--6--8--0-|
-0-0x0-0-0-0-0x0-0x0--0--0--0--0-x0--0-x0--0--0--0--0---4--4--6--6--8--0-|
-0-0x0-0-0-0-0x0-0x0--0--0--0--0-x0--0-x0--0--0--0--0---0--0--0--0--0--0-|
-0-0x0-0-0-0-0x0-0x0--0--0--0--0-x0--0-x0--0--0--0--0---0--0--0--0--0--0-|

Outro:
-------0-----------0-----------0-----------0-----------0------------0--------|
-----0-----------0-----------0-----------0-----------0------------0----------|
---4-----4-----4-----4-----4-----4-----6-----6-----6------6-----6------6-----|
-4---------4-4---------4-4---------4-6---------6-6----------6-6----------6-8-|
-----------------------------------------------------------------------------|
-----------------------------------------------------------------------------|

-------0----------0------------0-----------0--------------0--------0-------|
-----0-----------0-----------0------------0-------------0---------0--------|
---8-----8-----8-----8-----8-----8------10---10------10---------10---10----|
-8---------8-8---------8-8---------8-10---------10-10-------10-10------10--|
---------------------------------------------------------------------------|
---------------------------------------------------------------------------|
                                    Play Very Slow
-0x0x0-0-0xb3--------------------------------------------------------------|
-0x0x0-0-0xb0--------------------------------------------------------------|
-4x6x3-3-5xb0--------------------------------------------------------------|
-4x6x3-3-5xb0--------------------------------------------------------------|
-----------b2--------------------------------------------------------------|
-----------b3--------------------------------------------------------------|
Related for Escape tab