Song name
# A B C D E F G H I J K L M N O P Q R S T U V W X Y Z

Ed Harcourt - Loneliness tab

Okay, so it's a dance song... pretty much the only one I like though =) haha

I've tried seperating the tabs to get the timing right as best I can, though you'll 
probably have to listen to the song to get the timing perfect.


Intro:

e|---9-9--9--9--9-----------------------------|
B|---9-9--9--9--9-----------------------------|
G|---6-6--6--6--6----6-6-6-6-6-6--------------|
D|--------------------------------------------|  x2
A|--------------------------------4-4-4-4-4-4-|
E|--------------------------------------------|

     "Happiness..."
e|--------------------------------------------|
B|--------------------------------------------|
G|----6-6-6-6-6-6-6-6-6-6-6-6-14-14-9-9(11)---|
D|----6-6-6-6-6-6-6-6-6-6-6-6-14-14-9-9(11)---|  x2
A|----4-4-4-4-4-4-4-4-4-4-4-4-12-12-7-7(9)----|
E|--------------------------------------------|

e|------------------------------------------------------------------------------|
B|------------------------------------------------------------------------------|
G|----6-6-6-6-6-6-6-6-6-6-6-6-14-14-9-9-11-11-11-11-11-11-11-11-11-11-11-11-13r-|
D|----6-6-6-6-6-6-6-6-6-6-6-6-14-14-9-9-11-11-11-11-11-11-11-11-11-11-11-11-13r-|
A|----4-4-4-4-4-4-4-4-4-4-4-4-12-12-7-7-9--9--9--9--9--9--9--9--9--9--9--9--11r-|
E|------------------------------------------------------------------------------|

Main Bit:

e|-----------------------------------------|
B|-----------------------------------------|
G|-6-6-6-6-6-6-6-6-6-6-6-6-14-14-9-9-11-11-|
D|-6-6-6-6-6-6-6-6-6-6-6-6-14-14-9-9-11-11-|
A|-4-4-4-4-4-4-4-4-4-4-4-4-12-12-7-7-9--9--|

-------------------------------------------|
-------------------------------------------|
-11-11-11-11-11-11-11-11-11-11-11-11-13-13-|
-11-11-11-11-11-11-11-11-11-11-11-11-13-13-|
-9--9--9--9--9--9--9--9--9--9--9--9--11-11-|
-------------------------------------------|

-----------------------------------------------------------------------------------------|
-----------------------------------------------------------------------------------------|
-14-14-14-14-14-14-14-14-7-7-7-7-7-7-7-7-6-  -14-14-14-14-14-14-14-14-7-7-7-7-7-7-7-7-6--|
-12-12-12-12-12-12-12-12-5-5-5-5-5-5-5-5-4-----------------------------------------------|
-----------------------------------------------------------------------------------------|

---------------------------------|
---------------------------------|
-6-6-6-6-6-6-6-6-6-6-6-9-9-11-11-|
-6-6-6-6-6-6-6-6-6-6-6-9-9-11-11-| x(?)
-4-4-4-4-4-4-4-4-4-4-4-7-7-9--9--|
---------------------------------|


And then that's really the entire song. You may want to play this bit from the intro as 
as the song progresses:


G|-6-6-6-6-6-6-------------------|
D|-------------------------------|
A|--------------4-4-4-4-4-4------|


Any queries, contact me on g_r_a_v_i_t_y@hotmail.co.uk =)
Enjoy playing a dance song on guitar ^^
Tap to rate this tab
# A B C D E F G H I J K L M N O P Q R S T U V W X Y Z