Song name
# A B C D E F G H I J K L M N O P Q R S T U V W X Y Z

Ed Sheeran - You Need Me I Dont Need You tab

E-----------------------------|--------------------------------|
A-----------------------------|--------------------------------|
D-----------------------------|--13h15-----------15--------15--|
G-------x------x-----x-----x--|--------13--15p13----15p13------|
B---13-----13-----13----13----|--------------------------------|
e-----------------------------|--------------------------------|
        ^                                  ^
      INTRO                          Second Riff


E--6\|--1---4---6---9---11------------------------------------|
A--8\|--3---6---8---11--13------------------------------------|
D--8\|--3---6---8---11--13------------------------------------|
G--x\|--x---x---x---x---x-------------------------------------|
B--x\|--x---x---x---x---x-------------------------------------|
e--x\|--x---x---x---x---x-------------------------------------|


The first chord 688 is only play once then slide it down to 133
just before it kicks back in, then just repeat the chords after that
you will have to work out the timeing yourself its not that
hard, they may not be all power chords but that was as close as i could get.


x= mute out the other strings but still strike them.
h= hammer on
p= pull off

Or Drop D and play them like this.


E--8\|--3---6--8--x--x-----------------------------------------|
A--8\|--3---6--8--4--6-----------------------------------------|
D--8\|--3---6--8--6--8-----------------------------------------|
G--x\|--x---x--x--6--8-----------------------------------------|
B--x\|--x---x--x--x--x-----------------------------------------|
e--x\|--x---x--x--x--x-----------------------------------------|

same as the chord above play the first only once then slide down and repeat the chords enjoy.

Tab By Rushdown
Tap to rate this tab
 
# A B C D E F G H I J K L M N O P Q R S T U V W X Y Z