Song name
# A B C D E F G H I J K L M N O P Q R S T U V W X Y Z

Ed Sheeran - Sofa tab

First tab, a lot closer to the original version than just the chords.

Tuning is Drop C# (half a step lower than Drop D)

C#, G#, C#, F, Bb, Eb (i think)

Strumming pattern is yours to choose, and the notes on the score coincide with the lyrics.

Intro/Verse

Eb||-------------------------|-----------------------------|
Bb||-------------------------|-----------------------------|
F ||----2--------------------|------------4----------------|
C#||----0--------------------|------------0----------------|
G#||----0--------------------|-----------------------------|
C#||----0--------------------|------------5----------------|
   Shes reinventing loving me while we're resembling cutlery

Eb||-------------------------|-----------------------------|
Bb||-------------------------|-----------------------------|
F ||----7--------------------|------------6----------------|
C#||----0--------------------|------------0----------------|
G#||-------------------------|-----------------------------|
C#||----9--------------------|------------7----------------|
 On the sofa        it must've been about 5:01

Eb||-------------------------------------------------------|
Bb||-------------------------------------------------------|
F ||-------4-----------------------------------------------|
C#||-------0-----------------------------------------------|
G#||-------------------------------------------------------|
C#||-------5-----------------------------------------------|
    Got my blue ripped jeans on

Eb||----------------------------------------|-----------------------|
Bb||----------------------------------------|-----------------------|
F ||----2-----------------------------------|----4------------------|
C#||----0-----------------------------------|----0------------------|
G#||----------------------------------------|-----------------------|
C#||----0-----------------------------------|----5------------------|
    My eyes are close and im way too tired,      Hoody still smells

Eb||-------------------------|------------------------------|
Bb||-------------------------|------------------------------|
F ||-------------------------|---7--------------------------|
C#||-------------------------|---0--------------------------|
G#||-------------------------|------------------------------|
C#||-------------------------|---9--------------------------|
    of the beach bonfire         On the sofa where we lay

Eb||-------------------------------|-----------------------------|
Bb||-------------------------------|-----------------------------|
F ||-6-----------------4-----------|-----------------------------|
C#||-0-----------------0-----------|-----------------------------|
G#||-------------------------------|-----------------------------|
C#||-7-----------------5-----------|-----------------------------|
       I wanna' stay inside all day

Eb||-------------------------------|-------------------------------|
Bb||-------------------------------|-------------------------------|
F ||--------------------------2----|-------------------------------|
C#||----------2---------5-----0----|----------2---------5----------|
G#||----------2---------5-----0----|----------2---------5----------|
C#||----------2---------5-----0----|----------2---------5----------|
     And itís cold outside, again   And we're both, so high

Pre-Chorus

Eb||-------------------------------|--------------------------------|
Bb||-------------------------------|--------------------------------|
F ||---------7-----------------4---|--------2-----------------------|
C#||---------0-----------------0---|--------0-----------------------|
G#||-------------------------------|--------0-----------------------|
C#||---------9-----------------5---|--------0-----------------------|
    We could fly to berlin tokyo or jamaica

Eb||-------------------------------|------------------------------|
Bb||-------------------------------|------------------------------|
F ||---------7---------------------|---4-----------------------2--|
C#||---------0---------------------|---0-----------------------0--|
G#||-------------------------------|---------------------------0--|
C#||---------9---------------------|---5-----------------------0--|
      We can go where you want say the word and i'll take ya

Chorus

Eb||-------------------------------------------------------------------|
Bb||-------------------------------------------------------------------|
F ||---------------------------7--6--4-----------7--6--4---------------|
C#||---------------------------0--0--0-----------0--0--0---------------|
G#||-------------------------------------------------------------------|
C#||---------------------------9--7--5-----------9--7--5---------------|
    But i'd rather stay on the soooooofa, on the soooofa with you


repeat from verse through to chorus in time to lyrics (obv)

When the morning comes
Weíre not watching Formula I
Itís not what we breathe for
So kick off the day with Friends on T4
Two, boiled and brew
Two sugars ainít too sweet for you
On the sofa, where we lay
I wanna stay inside all day
And itís cold outside, again
And weíre still so high

We could fly to Berlin, Tokyo or Jamaica
We can go where you want
Say the word and Iíll take ya
But Iíd rather stay on the sofa
On the sofa, with you

(palm muted)
Eb||--------------------------------------------|-----------------------------|
Bb||--------------------------------------------|-----------------------------|
F ||-44444444-----66666666---77777777--22222222-|--44444444-----6~------------|
C#||-00000000-----00000000---00000000--00000000-|--00000000-----0~------------|
G#||-----------------------------------00000000-|-----------------------------|
C#||-55555555-----77777777---99999999--00000000-|--55555555-----7~------------|
    And it feels like im flying                    and it feels like




Repeat chord pattern for the pre-chorus until *****  then chorus until the lyrics end.

We could go to Berlin, Tokyo or Jamaica
Through the streets of New York
That is where I will take ya
Paris, Rome, to Rio
Passing through Las Vegas
We can go where you want
Say the word, and Iíll take ya
But Iíd rather stay on the sofa*****
On the sofa
On the sofa, with you
Tap to rate this tab
 
# A B C D E F G H I J K L M N O P Q R S T U V W X Y Z