Song name
# A B C D E F G H I J K L M N O P Q R S T U V W X Y Z

Ed Sheeran - Grade Eight tab

Ed Sheeran - Grade 8 (Released 12th Sept) from the album +.

____________________________________________________________________________

Tabbed by Eddie Jones-West (King_Elessar99@hotmail.com)

_____________________________________________________________________________

Worked this out from the 'Gig at your Gaff' footage which you can find on Youtube.

Capo 2nd fret.


Chords used


     Em     G    C   Edim

e|-----------------------------|
B|-----------------------------|
G|----0------------------------|
D|----2-----0----2----1--------|
A|----2-----x----3----2--------|
E|----0-----3----0----0--------|




Those are the chords for the whole song in that order apart from the bridge and the 
final chorus:



The Bridge only plays the Em and the Edim and mutes the rest:


e|----------x-----x-----------------|
B|----------x-----x-----------------|
G|----0-----x-----x-----------------|
D|----2-----x-----x-----1-----------|
A|----2-----x-----x-----2-----------|
E|----0-----x-----x-----0-----------|



Final Chorus:


      Em      Badd9       C       D

e|----7---------2---------3-------5------|
B|----8---------2---------5-------7------|
G|----9---------4---------5-------7------|
D|----9---------4---------5-------7------|
A|----7---------2---------3-------5------|
E|---------------------------------------|



The strumming pattern through out is pretty much the same, check out the video for the 
exact rhythm (it's the first song he plays) http://www.youtube.com/watch?v=WOzta-D1mOI

As a side note I like to hammer on every 1st and 3rd chord like he does in the video.

If you need any other Ed Sheeran tabs that aren't on here let me know!

Buy the album and support upcoming artists! Enjoy!
Tap to rate this tab
# A B C D E F G H I J K L M N O P Q R S T U V W X Y Z