Song name
# A B C D E F G H I J K L M N O P Q R S T U V W X Y Z

Ed Sheeran - Small Bump tab

-------------------------------------------------------------------------------
			     Small Bump - Ed Sheeran
-------------------------------------------------------------------------------

This is my first tab, tabbed from the acoustic video.
Most probably not 100% correct but I hope you guys enjoy.

^ = strum up
x = tap strings

Tuning: Standard

Capo 3


INTRO:
                       ^        ^
e|-------------x-|-----0-x------0-x-|-------------x-|--------------|
B|-------------x-|-----0-x------0-x-|-------------x-|--------------|
G|-0---0-----0-x-|-0---0-x--0---0-x-|-0---0-----0-x-|-2/4---4\2--0-|
D|-2---2---2---x-|-4---4-x--0h2-2-x-|-0---0---0---x-|--------------|
A|-------2-----x-|-2---2-x--3---3-x-|-------2-----x-|--------------|
E|-0---x-------x-|-------x--------x-|-3---x-------x-|-3/5---5\3----|
                       ^        ^                         ^        ^
e|-------------x-|-----0-x------0-x-|-------------x-|-----3-x------0-x-|
B|-------------x-|-----0-x------0-x-|-------------x-|-----3-x--3---3-x-|
G|-0---0-----0-x-|-0---0-x--0---0-x-|-0---0-----0-x-|-0---0-x--2---2-x-|
D|-2---2---2---x-|-4---4-x--0h2-2-x-|-0---0---0---x-|-0---0-x------0-x-|
A|-------2-----x-|-2---2-x--3---3-x-|-------2-----x-|-----2-x------0-x-|
E|-0---x-------x-|-------x--------x-|-3---x-------x-|-3---3-x--2---2-x-|


VERSE 1:
                       ^        ^                         ^        ^
e|-------------x-|-----0-x------0-x-|-------------x-|-----3-x------0-x-|
B|-------------x-|-----0-x------0-x-|-------------x-|-----3-x--3---3-x-|
G|-0---0-----0-x-|-0---0-x--0---0-x-|-0---0-----0-x-|-0---0-x--2---2-x-|
D|-2---2---2---x-|-4---4-x--0h2-2-x-|-0---0---0---x-|-0---0-x------0-x-|  x2
A|-------2-----x-|-2---2-x--3---3-x-|-------2-----x-|-----2-x------0-x-|
E|-0---x-------x-|-------x--------x-|-3---x-------x-|-3---3-x--2---2-x-|
                       ^        ^         ^        ^         ^        ^
e|-------------x-|-----0-x------0-x-|-----3-x------3-x-|-----3-x------0-x-|
B|-------------x-|-----0-x------0-x-|-----3-x------3-x-|-----3-x--3---3-x-|
G|-0---0-----0-x-|-0---0-x--0---0-x-|-0---0-x--0---0-x-|-0---0-x--2---2-x-|
D|-2---2---2---x-|-4---4-x--0h2-2-x-|-0---0-x--0---0-x-|-0---0-x------0-x-|
A|-------2-----x-|-2---2-x--3---3-x-|-----2-x------2-x-|-----2-x------0-x-|
E|-0---x-------x-|-------x--------x-|-3---3-x--3---3-x-|-3---3-x--2---2-x-|
                       ^        ^                          ^        ^
e|-------------x-|-----0-x------0-x-|--------------x-|-----3-x------3-x-|
B|-------------x-|-----0-x------0-x-|--------------x-|-----3-x------3-x-|
G|-0---0-----0-x-|-0---0-x--0---0-x-|------0-----0-x-|-0---0-x--0---0-x-|
D|-2---2---2---x-|-4---4-x--0h2-2-x-|------0---0---x-|-0---0-x--0---0-x-|
A|-------2-----x-|-2---2-x--3---3-x-|-0h2----2-----x-|-----2-x------2-x-|
E|-0---x-------x-|-------x--------x-|-3----x-------x-|-3---3-x--3---3-x-|


PRE-CHORUS:
            ^                ^                                  ^
e|-0---x-0--0-----|-0---x-0--0-----|-----x--------x-|-----x-----3---x-|
B|-1---x-1--1-----|-1---x-1--1-----|-0---x--------x-|-0---x-----0---x-|
G|-0---x-0--0-0---|-0---x-0--0-0---|-0---x------0-x-|-0---x--0--0---x-|
D|-----x----2---2-|-----x----2---2-|-0---x----0---x-|-0---x--0--0-0-x-|
A|-0---x-0--0-----|-3---x-3--3-----|-----x--------x-|-----x-----2---x-|
E|-----x----------|-----x----------|-3---x--3-----x-|-3---x--3--3---x-|
            ^                ^                                  ^
e|-0---x-0--0-----|-0---x-3--3-----|----------------|-----------------|
B|-1---x-1--1-----|-1---x-1--1-----|-3--------------|-----------------|
G|-0---x-0--0-0---|-0---x-0--0-0---|-2--------------|-----------------|
D|-----x----2---2-|-----x----2---2-|-0--------------|-----------------|
A|-0---x-0--0-----|-3---x-3--3-----|-0--------------|-----------------|
E|-----x----------|-----x----------|-2--------------|-----------------|


CHORUS:
                       ^        ^         ^        ^         ^        ^
e|-------------x-|-----0-x------0-x-|-----3-x------3-x-|-----3-x------0-x-|
B|-------------x-|-----0-x------0-x-|-----3-x------3-x-|-----3-x--3---3-x-|
G|-0---0-----0-x-|-0---0-x--0---0-x-|-----0-x------0-x-|-0---0-x--2---2-x-|
D|-2---2---2---x-|-4---4-x--0h2-2-x-|-----0-x--0---0-x-|-0---0-x------0-x-|
A|-------2-----x-|-2---2-x--3---3-x-|-0h2-2-x--2---2-x-|-----2-x------0-x-|
E|-0---x-------x-|-------x--------x-|-3---3-x--3---3-x-|-3---3-x--2---2-x-|
                       ^        ^                          ^        ^
e|-------------x-|-----0-x------0-x-|--------------x-|-----3-x------0-x-|
B|-------------x-|-----0-x------0-x-|--------------x-|-----3-x--3---3-x-|
G|-0---0-----0-x-|-0---0-x--0---0-x-|------0-----0-x-|-0---0-x--2---2-x-|
D|-2---2---2---x-|-4---4-x--0h2-2-x-|------0---0---x-|-0---0-x------0-x-|
A|-------2-----x-|-2---2-x--3---3-x-|-0h2----2-----x-|-----2-x------0-x-|
E|-0---x-------x-|-------x--------x-|-3----x-------x-|-3---3-x--2---2-x-|
                       ^        ^         ^        ^         ^        ^
e|-------------x-|-----0-x------0-x-|-----3-x------3-x-|-----3-x------0-x-|
B|-------------x-|-----0-x------0-x-|-----3-x------3-x-|-----3-x--3---3-x-|
G|-0---0-----0-x-|-0---0-x--0---0-x-|-0---0-x--0---0-x-|-0---0-x--2---2-x-|
D|-2---2---2---x-|-4---4-x--0h2-2-x-|-0---0-x--0---0-x-|-0---0-x------0-x-|
A|-------2-----x-|-2---2-x--3---3-x-|-----2-x------2-x-|-----2-x------0-x-|
E|-0---x-------x-|-------x--------x-|-3---3-x--3---3-x-|-3---3-x--2---2-x-|
                       ^        ^                   
e|-------------x-|-----0-x------0-x-|--------------x-|---------------|
B|-------------x-|-----0-x------0-x-|--------------x-|---------------|
G|-0---0-----0-x-|-0---0-x--0---0-x-|------0-----0-x-|-0-------------|
D|-2---2---2---x-|-4---4-x--0h2-2-x-|------0---0---x-|-0-------------|
A|-------2-----x-|-2---2-x--3---3-x-|-0h2----2-----x-|---------------|
E|-0---x-------x-|-------x--------x-|-3----x-------x-|-3-------------|
                                                      

VERSE 2:
                       ^        ^                          ^        ^
e|-------------x-|-----0-x------0-x-|--------------x-|-----3-x------0-x-|
B|-------------x-|-----0-x------0-x-|--------------x-|-----3-x--3---3-x-|
G|-0---0-----0-x-|-0---0-x--0---0-x-|------0-----0-x-|-0---0-x--2---2-x-|
D|-2---2---2---x-|-4---4-x--0h2-2-x-|------0---0---x-|-0---0-x------0-x-|  x2
A|-------2-----x-|-2---2-x--3---3-x-|-0h2----2-----x-|-----2-x------0-x-|
E|-0---x-------x-|-------x--------x-|-3----x-------x-|-3---3-x--2---2-x-|
                       
e|-0-------------|------------------|----------------|------------------|
B|-0-------------|------------------|----------------|----------3-------|
G|-0-------------|-0----------------|-0--------------|----------2-------|
D|-2-------------|-4--------0h2-----|-0--------------|------------------|
A|-2-------------|-2----------------|-2--------------|------------------|
E|-0-------------|------------------|-3--------------|----------2-------|
                       ^        ^                          ^        ^
e|-------------x-|-----0-x------0-x-|--------------x-|-----3-x------3-x-|
B|-------------x-|-----0-x------0-x-|--------------x-|-----3-x------3-x-|
G|-0---0-----0-x-|-0---0-x--0---0-x-|------0-----0-x-|-0---0-x--0---0-x-|
D|-2---2---2---x-|-4---4-x--0h2-2-x-|------0---0---x-|-0---0-x--0---0-x-|
A|-------2-----x-|-2---2-x--3---3-x-|-0h2----2-----x-|-----2-x------2-x-|
E|-0---x-------x-|-------x--------x-|-3----x-------x-|-3---3-x--3---3-x-|


PRE-CHORUS:
            ^                ^                                  ^
e|-0---x-0--0-----|-0---x-0--0-----|-----x--------x-|-----x-----3---x-|
B|-1---x-1--1-----|-1---x-1--1-----|-0---x--------x-|-0---x-----0---x-|
G|-0---x-0--0-0---|-0---x-0--0-0---|-0---x------0-x-|-0---x--0--0---x-|
D|-----x----2---2-|-----x----2---2-|-0---x----0---x-|-0---x--0--0-0-x-|
A|-0---x-0--0-----|-3---x-3--3-----|-----x--------x-|-----x-----2---x-|
E|-----x----------|-----x----------|-3---x--3-----x-|-3---x--3--3---x-|
            ^                ^                                  ^
e|-0---x-0--0-----|-0---x-3--3-----|----------------|-----------------|
B|-1---x-1--1-----|-1---x-1--1-----|-3-3-3-3-3-3-3--|-----------------|
G|-0---x-0--0-0---|-0---x-0--0-0---|-2-2-2-2-2-2-2--|-----------------|
D|-----x----2---2-|-----x----2---2-|-0-0-0-0-0-0-0--|-----------------|
A|-0---x-0--0-----|-3---x-3--3-----|-0-0-0-0-0-0-0--|-----------------|
E|-----x----------|-----x----------|-2-2-2-2-2-2-2--|-----------------|


CHORUS:
                       ^        ^         ^        ^         ^        ^
e|-------------x-|-----0-x------0-x-|-----3-x------3-x-|-----3-x------0-x-|
B|-------------x-|-----0-x------0-x-|-----3-x------3-x-|-----3-x--3---3-x-|
G|-0---0-----0-x-|-0---0-x--0---0-x-|-----0-x--0---0-x-|-0---0-x--2---2-x-|
D|-2---2---2---x-|-4---4-x--0h2-2-x-|-----0-x--0---0-x-|-0---0-x------0-x-|
A|-------2-----x-|-2---2-x--3---3-x-|-0h2-2-x------2-x-|-----2-x------0-x-|
E|-0---x-------x-|-------x--------x-|-3---3-x--3---3-x-|-3---3-x--2---2-x-|
                       ^        ^                          ^        ^
e|-------------x-|-----0-x------0-x-|--------------x-|-----3-x------0-x-|
B|-------------x-|-----0-x------0-x-|--------------x-|-----3-x--3---3-x-|
G|-0---0-----0-x-|-0---0-x--0---0-x-|------0-----0-x-|-0---0-x--2---2-x-|
D|-2---2---2---x-|-4---4-x--0h2-2-x-|------0---0---x-|-0---0-x------0-x-|
A|-------2-----x-|-2---2-x--3---3-x-|-0h2----2-----x-|-----2-x------0-x-|
E|-0---x-------x-|-------x--------x-|-3----x-------x-|-3---3-x--2---2-x-|
                       ^        ^         ^        ^         ^        ^
e|-------------x-|-----0-x------0-x-|-----3-x------3-x-|-----3-x------0-x-|
B|-------------x-|-----0-x------0-x-|-----3-x------3-x-|-----3-x--3---3-x-|
G|-0---0-----0-x-|-0---0-x--0---0-x-|-0---0-x--0---0-x-|-0---0-x--2---2-x-|
D|-2---2---2---x-|-4---4-x--0h2-2-x-|-0---0-x--0---0-x-|-0---0-x------0-x-|
A|-------2-----x-|-2---2-x--3---3-x-|-----2-x------2-x-|-----2-x------0-x-|
E|-0---x-------x-|-------x--------x-|-3---3-x--3---3-x-|-3---3-x--2---2-x-|
                       ^        ^                   
e|-------------x-|-----0-x------0-x-|--------------x-|---------------|
B|-------------x-|-----0-x------0-x-|--------------x-|---------------|
G|-0---0-----0-x-|-0---0-x--0---0-x-|------0-----0-x-|-0---0-----0---|
D|-2---2---2---x-|-4---4-x--0h2-2-x-|------0---0---x-|-0---0---0-----|
A|-------2-----x-|-2---2-x--3---3-x-|-0h2----2-----x-|-------2-------|
E|-0---x-------x-|-------x--------x-|-3----x-------x-|-3---x---------|


BRIDGE:
       ^                                  
e|-2---2-x-----2-x-|-------x--------x-|------x-------x-|-----x-------x-|
B|-3---3-x---3---x-|---3---x-----3--x-|---0--x-----0-x-|---0-x-----0-x-|
G|-2---2-x-2-----x-|-2-0---x-----0--x-|---0--x-----0-x-|---0-x-----0-x-|
D|-----0-x-------x-|---2---x---2----x-|---2--x---2---x-|-2-0-x---0---x-|
A|-0-----x-0-----x-|---3---x-3------x-|-3-2--x-2-----x-|-----x-2-----x-|
E|-------x-------x-|-------x--------x-|------x-------x-|---3-x-------x-|
                                         
e|-2-----x-----2-x-|-------x--------x-|------x-------x-|-----x-------x-|
B|-3-----x---3---x-|---3---x-----3--x-|---0--x-----0-x-|---0-x-----0-x-|
G|-2-----x-2-----x-|-2-0---x-----0--x-|---0--x-----0-x-|---0-x-----0-x-|
D|-------x-------x-|---2---x---2----x-|---2--x---2---x-|-2-0-x---0---x-|
A|-0-----x-0-----x-|---3---x-3------x-|-3-2--x-2-----x-|-----x-2-----x-|
E|-------x-------x-|-------x--------x-|------x-------x-|---3-x-------x-|
                                         
e|------0--------0-|------0-----------|----------------|
B|------3--------3-|------5-----------|----------------|
G|------0--------0-|------0-----------|----------------|
D|------2--------2-|------4-----------|----------------|
A|-0-3-------------|-0-5--------------|----------------|
E|-----------------|------------------|----------------|


CHORUS:
                       ^        ^                          ^        ^
e|-------------x-|-----0-x------0-x-|--------------x-|-----3-x------0-x-|
B|-------------x-|-----0-x------0-x-|--------------x-|-----3-x--3---3-x-|
G|-0---0-----0-x-|-0---0-x--0---0-x-|-0----0-----0-x-|-0---0-x--2---2-x-|
D|-2---2---2---x-|-4---4-x--0h2-2-x-|-0----0---0---x-|-0---0-x------0-x-|
A|-------2-----x-|-2---2-x--3---3-x-|--------2-----x-|-----2-x------0-x-|
E|-0---x-------x-|-------x--------x-|-3----x-------x-|-3---3-x--2---2-x-|
                       ^        ^                          ^        ^
e|-------------x-|-----0-x------0-x-|--------------x-|-----3-x------0-x-|
B|-------------x-|-----0-x------0-x-|--------------x-|-----3-x--3---3-x-|
G|-0---0-----0-x-|-0---0-x--0---0-x-|-0----0-----0-x-|-0---0-x--2---2-x-|
D|-2---2---2---x-|-4---4-x--0h2-2-x-|-0----0---0---x-|-0---0-x------0-x-|
A|-------2-----x-|-2---2-x--3---3-x-|--------2-----x-|-----2-x------0-x-|
E|-0---x-------x-|-------x--------x-|-3----x-------x-|-3---3-x--2---2-x-|
                       ^        ^                          ^        ^
e|-------------x-|-----0-x------0-x-|--------------x-|-----3-x------0-x-|
B|-------------x-|-----0-x------0-x-|--------------x-|-----3-x--3---3-x-|
G|-0---0-----0-x-|-0---0-x--0---0-x-|-0----0-----0-x-|-0---0-x--2---2-x-|
D|-2---2---2---x-|-4---4-x--0h2-2-x-|-0----0---0---x-|-0---0-x------0-x-|
A|-------2-----x-|-2---2-x--3---3-x-|--------2-----x-|-----2-x------0-x-|
E|-0---x-------x-|-------x--------x-|-3----x-------x-|-3---3-x--2---2-x-|
                       ^        ^                          
e|-------------x-|-----0-x------0-x-|--------------x-|------------------|
B|-------------x-|-----0-x------0-x-|--------------x-|------------------|
G|-0---0-----0-x-|-0---0-x--0---0-x-|-0----0-----0-x-|-0--------0-----0-|
D|-2---2---2---x-|-4---4-x--0h2-2-x-|-0----0---0---x-|-0--0---0-----0---|
A|-------2-----x-|-2---2-x--3---3-x-|--------2-----x-|------2-----------|
E|-0---x-------x-|-------x--------x-|-3----x-------x-|-3----------------|


OUTRO:
                                                 
e|---------------|------------------|----------------|------------------|
B|-3-------------|------------------|----------------|------------------|
G|-2-0-----------|-0--------0-------|-0--------------|------------------|
D|---2-----------|-4--------0h2-----|-0--------------|------------------|
A|---------------|-2--------3-------|----------------|------------------|
E|-2-0-----------|------------------|-3--------------|------------------|
                                                 
e|---------------|------------------|----------------|------------------|
B|---------------|------------------|----------------|------------------|
G|-0-------------|-0--------0-------|-0--------------|------------------|
D|-2-------------|-4--------0h2-----|-0--------------|------------------|
A|---------------|-2--------3-------|----------------|------------------|
E|-0-------------|------------------|-3--------------|------------------|


************************************

| /   slide up
| \   slide down
| ^   Strum up
| h   hammer-on
| p   pull-off
| x   Mute note / Tap string

************************************

Tap to rate this tab
 
# A B C D E F G H I J K L M N O P Q R S T U V W X Y Z