Song name
# A B C D E F G H I J K L M N O P Q R S T U V W X Y Z

Ed Sheeran - The A Team tab

-------------------------------------------------------------------------------
			     THE A TEAM - Ed Sheeran
-------------------------------------------------------------------------------
Tabbed by: ndermawan
Email: ndermawan@yahoo.com

Tuning: Capo 2 Standard Tuning

Tab is not in relation to capo, normal finger position numbers

e|---------------------------------------------------------------------------|
B|-----14--\10-------------------------------10-------10h12--10--------------|
G|-------------------------9--------6--9\11------11------------11------------|
D|----------------11p9--7----------------------------------------------------|
A|---------------------------------------------------------------------------|
E|---------------------------------------------------------------------------|

Palm Mute                              Mute off
e|----------------------------------------------2--4--5---let ring-----------|
B|----------------------------------------2--5-------------------------------|
G|-----------2--4--2--4--2--4\6----------------------------------------------|
D|------2h4------------------------------------------------------------------|
A|---------------------------------------------------------------------------|
E|---------------------------------------------------------------------------|


Hope it does justice and is accurate enough, I don't actually know how to get the kinda 
overdrive or 2-note effect he gets on the last few notes of the first part of the solo, 
so that's just the way I play it.

Cheers guys & gals!


************************************

| /   slide up
| \   slide down
| h   hammer-on
| p   pull-off
| ~   vibrato
| +   harmonic
| x   Mute note
| b   Bend
| pb  Pre-bend
| br  Bend release
| pbr Pre-bend release
| brb Bend release bend

************************************
Tap to rate this tab
# A B C D E F G H I J K L M N O P Q R S T U V W X Y Z