Song name
# A B C D E F G H I J K L M N O P Q R S T U V W X Y Z

Ed Sheeran - Lego House tab

Lego House Acoustic Tab

E-----------------------------------------------------|
B-----------------------------------------------------|
G-----4-4-4-4-4-4--4-4--4-4-4-4-4-4--4-4--4-4-4-4-4-4-|
D-----4-4-4-4-4-4--4-4--4-4-4-4-4-4--4-4--4-4-4-4-4-4-|
A---2------------------------------------2------------|
E-----------------2----4------------0-----------------|



E-------------------------------------|
B-------------------------------------|
G--4-4--4-4-4-4-4-4--4-4--4-4-4-4-4-4-|
D--4-4--4-4-4-4-4-4--4-4--4-4-4-4-4-4-|
A------------------------2------------|
E-2----4------------0-----------------|

It Goes Like This Throughout The Song.
Tap to rate this tab
 
# A B C D E F G H I J K L M N O P Q R S T U V W X Y Z