Song name
# A B C D E F G H I J K L M N O P Q R S T U V W X Y Z

Ed Sheeran - Lego House tab

-------------------------------------------------------------------------------
			     SONG NAME - Band Name
-------------------------------------------------------------------------------
Tabbed by:Unregistered
Email:-

Tuning:Standard

This section can be repeated throughout the song. Despite the chorus being slightly 
different this still works. I like to strike the original notes harder then soften my 
strokes before changing note.

The lyrics will start on the 3rd time around.

e|-----------------------------------------------------------------------------|
B|-----------------------------------------------------------------------------|
G|-----------------------------------------------------------------------------|
D|------4-----4-----4-----4-----4-----4-----4-----4----4----4-----4------------|
A|---2-----2-----2-----2-----2-------------------------------------------------|
E|---------------------------------2-----2-----4-----4----4-----4--------------|


                          'Im gonna pick the pieces ....


e|------------------------------------------|
B|------------------------------------------|
G|------------------------------------------|
D|------4-----4-----4-----4-----4-----------|
A|--------------------------(2)-------------|
E|---0-----0-----2-----2--------------------|

************************************

| /   slide up
| \   slide down
| h   hammer-on
| p   pull-off
| ~   vibrato
| +   harmonic
| x   Mute note
| b   Bend
| pb  Pre-bend
| br  Bend release
| pbr Pre-bend release
| brb Bend release bend

************************************
Tap to rate this tab
 
# A B C D E F G H I J K L M N O P Q R S T U V W X Y Z