Guitaretab - guitar tabs
Song name
# A B C D E F G H I J K L M N O P Q R S T U V W X Y Z

Ed Sheeran - Sunburn tab

Submitted by James Gladstone

Standard Tuning w/ Capo on 5th fret.
This has been played to the album version and fits perfectly.
---------------------------------------------------

INTRO:

e|----------------------------------------------|
B|----------------------------------------------|
G|--2-2-----2-2-----2-2----2-2------------------|
D|--3-3-----3-3-----3-3----3-3------------------|
A|----------------------------------------------|
E|-------1-------1-------1------1---------------|

e|----------------------------------------------------|
B|----------------------------------------------------|
G|--3-3-----3-3-----3-3----3---0----2-----------------|
D|--3-3-----3-3-----3-3----3--------------------------|        x2
A|-------1-------1-------1----------------------------|
E|----------------------------------------------------|



VERSE:

You're not her. Though I try to see you..

e|----------------------------------------------|
B|----------------------------------------------|
G|--2-2-----2-2-----2-2----2-2------------------|
D|--3-3-----3-3-----3-3----3-3------------------|
A|----------------------------------------------|
E|-------1-------1-------1------1---------------|

..differently

e|---------------------------------------------|
B|---------------------------------------------|
G|--3-3-----3-3-----3-3----3-3-----------------|
D|--3-3-----3-3-----3-3----3-3-----------------|
A|-------1-------1-------1------1--------------|
E|---------------------------------------------|

I toe the line. See I'm searching for what..

e|----------------------------------------------|
B|----------------------------------------------|
G|--2-2-----2-2-----2-2----2-2------------------|
D|--3-3-----3-3-----3-3----3-3------------------|
A|----------------------------------------------|
E|-------1-------1-------1------1---------------|

..used to be, mine  ooohhhh

e|---------------------------------------------|
B|---------------------------------------------|
G|--3-3-----3-3-----3-3----3-3-----------------|
D|--3-3-----3-3-----3-3----3-3-----------------|
A|-------1-------1-------1------1--------------|
E|---------------------------------------------|

I Saw your eyes. Then I saw her staring..

|-----------------------------------------------|
B|----------------------------------------------|
G|--2-2-----2-2-----2-2----2-2------------------|
D|--3-3-----3-3-----3-3----3-3------------------|
A|----------------------------------------------|
E|-------1-------1-------1------1---------------|

..back at me

e|---------------------------------------------|
B|---------------------------------------------|
G|--3-3-----3-3-----3-3----3-3-----------------|
D|--3-3-----3-3-----3-3----3-3-----------------|
A|-------1-------1-------1------1--------------|
E|---------------------------------------------|

And I will try. To find another one who's..

|-----------------------------------------------|
B|----------------------------------------------|
G|--2-2-----2-2-----2-2----2-2------------------|
D|--3-3-----3-3-----3-3----3-3------------------|
A|----------------------------------------------|
E|-------1-------1-------1------1---------------|

..suited to me. As well..        ..as her

e|---------------------------------------------|
B|---------------------------------------------|
G|--3-3-----3-3-----5-5----5-5-----------------|
D|--3-3-----3-3-----5-5----5-5-----------------|
A|-------1-------1-------3------3--------------|
E|---------------------------------------------|

CHORUS


   I've moved,         far away from you         ..and I want to
[ Tab from: http://www.guitaretab.com/e/ed-sheeran/307129.html ]
e|--------------------------------------------------------------------|
B|--------------------------------------------------------------------|
G|--3-3-----3-3-----5-5----5-5----7-7----7-7-----2-2----2-2-----------|
D|--3-3-----3-3-----5-5----5-5----7-7----7-7-----3-3----3-3-----------|
A|-------1-------1-------3------3------5------5-----------------------|
E|-----------------------------------------------------1------1-------|

  See you here beside me dear..       ..but things aren't clear.

e|--------------------------------------------------------------------|
B|--------------------------------------------------------------------|
G|--3-3-----3-3-----5-5----5-5----7-7----7-7-----2-2----2-2-----------|
D|--3-3-----3-3-----5-5----5-5----7-7----7-7-----3-3----3-3-----------|
A|-------1-------1-------3------3------5------5-----------------------|
E|-----------------------------------------------------1------1-------|


And we never even tried. We never even talked. We never even thought in the long run

e|--------------------------------------------------------------------|
B|--------------------------------------------------------------------|
G|--3-3-----3-3-----5-5----5-5----7-7----7-7-----2-2----2-2-----------|
D|--3-3-----3-3-----5-5----5-5----7-7----7-7-----3-3----3-3-----------|
A|-------1-------1-------3------3------5------5-----------------------|
E|-----------------------------------------------------1------1-------|

Whenever it was painful. Whenever I was away. I'd miss you. I miss you

e|--------------------------------------------------------------------|
B|--------------------------------------------------------------------|
G|--3-3-----3-3-----5-5----5-5----7-7----7-7-----2-2----2-2-----------|
D|--3-3-----3-3-----5-5----5-5----7-7----7-7-----3-3----3-3-----------|
A|-------1-------1-------3------3------5------5-----------------------|
E|-----------------------------------------------------1------1-------|



VERSE

She was mine, I was hers
And all that's in between
if she would cry
I would shelter her
And keep her from the darkness that will be

CHORUS

If I moved, far away from you
And I want to
See you here beside me dear
but things aren't clear

And we never even tried
We never even talked
We never even thought in the long run
Whenever it was painful
Whenever I was away
I'd miss you
I miss you


Don't trap me in, it's not my time

e|-----------------------------------------|
B|-----------------------------------------|
G|-----2-------2--------2-------2----------|
D|-----3-------3--------3-------3----------|
A|-----------------------------------------|
E|-1-1---1-1-1---1-1-1----1-1-1---1--------|

If you cut me deep then I might lie and if you

e|-----------------------------------------|
B|-----------------------------------------|
G|-----3-------3--------3-------3----------|
D|-----3-------3--------3-------3----------|
A|-1-1---1-1-1---1-1-1----1-1-1---1/-------|
E|-----------------------------------------|

Scar and leave me, like a sunburn

e|-----------------------------------------|
B|-----------------------------------------|
G|-----7-------7--------5-------5----------|
D|-----7-------7--------5-------5----------|
A|-5-5---5-5-5---5\3-3----3-3-3---3--------|
E|-----------------------------------------|

e|---------------------------------------|
B|---------------------------------------|
G|-----2----2----0--2------2---2---------|   Repeat
D|-----3----3----2--3------3---3---------|
A|---------------------------------------|
E|-1-1---1-----1------1-1----1----1------|

Don't trap me in, it's not my time
if you cut deep then I might lie
And you
Scarred and left me, like a sunburn

CHORUS

And we never even tried
We never even talked
We never even thought in the long run
Whenever it was painful
Whenever I was away
I'd miss you
I miss you
Related for Sunburn tab
Sunburn chords by Ed Sheeran