Song name
# A B C D E F G H I J K L M N O P Q R S T U V W X Y Z

Ed Sheeran - Gold Rush tab

Ed Sheeran
"Gold Rush"
tabbed by JJaySteyn
Standard Tuning (EADGBe)


E----------------------------------------------------------|
B----------------------------------------------------------|
G---9h11p9-/13-13-13-13-11-9-9-11-9--------------------9---|
D-9---------------------------------11-11-9-9-9-9-9-11-----|
A----------------------------------------------------------|
E----------------------------------------------------------|

E--------------9-12-15b-15b-12-----------------------------|
B-9-12-9-12-12-----------------14-12-----------------------|
G------------------------------------14-13-14-13-14-14-14--|
D----------------------------------------------------------|
A----------------------------------------------------------|
E----------------------------------------------------------|

E----------------------------------------------------------|
B----------------------------------------------------------|
G-14-13-13-11-9-9------------------------------------------|
D-----------------11-9-9-----------------------------------|
A------------------------12-11b-11b-11b-11-----------------|
E------------------------------------------12-12-----------|

E----------------------------------------------------------|
B------------------------------------------/12-12-10-9-----|
G-------------------11-11----13-13-13-11-9-----------------|
D-------------11h14-------14-------------------------------|
A-------12h14----------------------------------------------|
E-12h14----------------------------------------------------|

Listen to the song to get an idea of the beat and the timing of the notes.
Enjoy!! And please rate and leave a comment if you have question or if I made a mistake. Thanx!
JJaySteyn
Tap to rate this tab
 
# A B C D E F G H I J K L M N O P Q R S T U V W X Y Z