Song name
# A B C D E F G H I J K L M N O P Q R S T U V W X Y Z

Ed Sheeran - A Team tab

-------------------------------------------------------------------------------
                             A Team(Solo) - Ed Sheeran
-------------------------------------------------------------------------------
Tabbed by: Jake Jonas
E-mail: sly_trooper@hotmail.com

Tuning: standard (EADGBe)

e|------------------------------------------------------------------------------|
B|---12 b^-------------------------------10----------10p9----------------------|
G|--------------9----------------9h11----------9-------------11p9---------------|
D|---------------------9/11-----------------------------------------------------|
A|------------------------------------------------------------------------------|
E|------------------------------------------------------------------------------|


e|---------------------------------------------------------------------------|
B|------------------------------------------------------10-------------------|
G|------------------------------9-------------------9------------------------|
D|------------9----------9h11----------------9h11----------------------------|
A|----9--11--------11----------------9--11-----------------------------------|
E|---------------------------------------------------------------------------|
Pm    .  .         .                 .  .


Key/Legend:

b^  =   Bend half a step
/        =   Slide up
h       =   Hammer - on
p       =   Pull - off
Pm    =   Palm mute
Tap to rate this tab
 
# A B C D E F G H I J K L M N O P Q R S T U V W X Y Z