Song name
# A B C D E F G H I J K L M N O P Q R S T U V W X Y Z

Ed Sheeran - Kiss Me tab

Hey guys this is my first tab i've ever done.
It's the two solos from "Kiss Me" by Ed Sheeran.
The solos might need some affects or it uses two guitars
i'm not too sure but please enjoy!

Intro Solo

e|-----------------------------------------------|
B|--------------------10-------------------------|
G|----7/9-9p7--10b11----10pbr-7------------------|
D|--------------------------------7/9-7----------|
A|-----------------------------------------------|
E|-----------------------------------------------|

2nd Solo

e|-----------------------------------------------|
B|--------------------10----------------------7~-|
G|----7/9-9p7--10b11----10pbr-9-7---7-7-7-9-7----|
D|-----------------------------------------------|
A|-----------------------------------------------|
E|-----------------------------------------------|

e|-----------------------------------------------------|
B|---------------------------------------10------------|
G|-----------------------7------7/9-9b11----9pb-7---7--|
D|-----------7-----5-7-9---9-7--------------------9----|
A|---7-5-7-9----9--------------------------------------|
E|-----------------------------------------------------|
|
e|----------------------------------------------------10~---10/12-13b15--13pbr-10~-|
B|-------------------------------------------10-12-10------------------------------|
G|---7-7-9-9b11--9b11-9b11-9b11-9br-7---7/11---------------------------------------|
D|---------------------------------------------------------------------------------|
A|---------------------------------------------------------------------------------|
E|---------------------------------------------------------------------------------|

Tap to rate this tab
 
# A B C D E F G H I J K L M N O P Q R S T U V W X Y Z