Song name
# A B C D E F G H I J K L M N O P Q R S T U V W X Y Z

Ed Sheeran - Autumn Leaves tab

Standard tuning
Capo 2nd fret
Autumn leaves: Ed Sheeran
Exactly the same as the original
Intro/Verse :

e-------------------------------------|
b-----3----3----3----3----------------|
g----0-0--0-0--0-0--0-0-       Intro--| x2
d------------------------      Verse--| X4
a------------------3------------------|
E---0----2----3-----------------------|

Pre-chorus:

e-------3---------|
b----1-1--1-3-----|
g---0-0--0--0-----|
d-----------------|
a--3--------5-----|
E-----------------|

Chorus:
e-------------------|
b----3---3---3---3--|
g---0-0-0-0-0-0-0-0-|
d-------------------|      X4
a---------------3---|
E--3---2---0--------|

Bridge:
e-------------------|
b----3---3---3---3--|
g---0-0-2-2-0-0-0-0-|
d-------------------|
a---------------3---|
E--3---2---0--------|
Tap to rate this tab
 
# A B C D E F G H I J K L M N O P Q R S T U V W X Y Z