Song name
# A B C D E F G H I J K L M N O P Q R S T U V W X Y Z

Ed Sheeran - Gold Rush chords

Highlighted       Show chord diagrams
Intro: G, Am, C X2

G         Am           C
Smoke alarm went off at 9
G          Am               C
I woke up, wiped the sleep out of my eyes
     G           Am               C
She left a note 'I'll be back in 5'
      G              Am               C
Well, I'm still waiting for that moment to arrive,


Em             C                      D
I was told to put my job in front of you
Em          C        D
But it won't hold me like you do


                    G
But I do it for the love
               Am
Waiting on the gold rush
               C
Keep it on the edge
Smoking on a roll up
              G
When I see my friends
                Am
All they say is hold up
                 C
And remember the time
                 G
When we were in school
             Am
Listening to grown ups
               C
Didn't learn a thing
But then again you know what
                G
You know how to sing
                   Am
But you don't know anything
C
Other than that


                             G
So maybe you should learn to love her
 Am            C
Like, like the way
                            G
Maybe you should learn to love her
 Am            C
Like, like the way
                            G
Maybe you should learn to love her
 Am            C
Like, like the way
                               G
And maybe you should learn to love her
 Am            C
Like, like the way
You want to be loved

G         Am              C
I never told her that I liked
      G       Am            C
The way she dances slightly out of time
G             Am             C
And pretends she knows the words
To a song she's never heard
G     Am              C
But I tell her all the time

Em      C      D
I was told to put my job in front of you
Em          C        D
But it won't hold me like you do


                    G
But I do it for the love
               Am
Waiting on the gold rush
               C
Keep it on the edge
Smoking on a roll up
              G
When I see my friends
                Am
All they say is hold up
                 C
And remember the time
                 G
When we were in school
             Am
Listening to grown ups
               C
Didn't learn a thing
But then again you know what
                G
You know how to sing
                   Am
But you don't know anything
C
Other than that


                             G
So maybe you should learn to love her
 Am            C
Like, like the way
                            G
Maybe you should learn to love her
 Am            C
Like, like the way
                            G
Maybe you should learn to love her
 Am            C
Like, like the way
                               G
And maybe you should learn to love her
 Am            C
Like, like the way
You want to be loved


Interlude E, F#m, A (as you could've guessed)

OR if you want to

e|-------------------------------------------------------------------|
B|-------------------------------------------------------12----12-14-|
G|--13-13-13-13-11-9---9-9-11-9------------------9-11-13----13-------|
D|------------------------------11-11-9-9---9-11---------------------|
A|-------------------------------------------------------------------|
E|-------------------------------------------------------------------|

e|-16-14-12-12h14p12-----------------------------------------------------|
B|------------------14-14-12-12------------------------------------------|
G|-----------------------------13----------------------------------------|
D|-------------------------------14-14--11-------------------------------|
A|----------------------------------------14-14--11b-11b-11b-11b-11------|
E|------------------------------------------------------------------12-12|

e|---------------------------------------------------|
B|---------------------------------------------9-9-7-|
G|--------------------12h14-9h11-13-13-13-11-9-------|
D|--------------12h14--------------------------------|
A|--------12h14--------------------------------------|
E|--12h14--------------------------------------------|


                    G
But I do it for the love
               Am
Waiting on the gold rush
               C
Keep it on the edge
Smoking on a roll up
              G
When I see my friends
                Am
All they say is hold up
                 C
And remember the time
                 G
When we were in school
             Am
Listening to grown ups
               C
Didn't learn a thing
But then again you know what
                G
You know how to sing
                   Am
But you don't know anything
C
Other than that


                             G
So maybe you should learn to love her
 Am            C
Like, like the way
                            G
Maybe you should learn to love her
 Am            C
Like, like the way
                            G
Maybe you should learn to love her
 Am            C
Like, like the way
                               G
And maybe you should learn to love her
 Am            C
Like, like the way
You want to be loved
Tap to rate this tab
# A B C D E F G H I J K L M N O P Q R S T U V W X Y Z