Song name
# A B C D E F G H I J K L M N O P Q R S T U V W X Y Z

Ed Sheeran - Lego House Acoustic tab

Ed Sheeran - Lego House

     Capo 0


3x (1x intro + 2x verse)
E-----------------------------------------------------------------------------------------|
B-----------------------------------------------------------------------------------------|
G---4-4-4-4---4-4---4-4---4-4-4-4---4-4---4-4---4-4-4-4---4-4---4-4---4-4-4-4---4-4---4-4-|
D---4-4-4-4---4-4---4-4---4-4-4-4---4-4---4-4---4-4-4-4---4-4---4-4---4-4-4-4---4-4---4-4-|
A-2---------2---------------------------------2---------2---------------------------------|
E-----------------2-----4---------4-----2---------------------2-----4---------4-----2-----|

   I'm gonna pick up the pieces, and build a Lego house when things go wrong we can 
knock it down
   My three words have two meanings, there's one thing on my mind It's all for you


1x
E-----------------------------------------------------------------------------------------|
B-----------------------------------------------------------------------------------------|
G---4-4-4-4---4-4-4-4---4-4-4-4---4-4---4-4---4-4-4-4---4-4-4-4---4-4-4-4-----------------|
D---4-4-4-4---4-4-4-4---4-4-4-4---4-4---4-4---4-4-4-4---4-4-4-4---4-4-4-4-----------------|
A-2-----------------------------------------2---------------------------------------------|
E-----------2---------4---------4-----2---------------2---------4---------0---------------|

   And it's dark in a cold December, but I've got ya to keep me warm
   and if you're broke I'll mend ya and keep you sheltered from the storm that's raging on


2x
E-----------------------------------------------------------------------------------------|
B-----------------------------------------------------------------------------------------|
G---4-4-4-4---4-4---4-4---4-4-4-4---4-4---4-4---4-4-4-4---4-4---4-4---4-4-4-4---4-4---4-4-|
D---4-4-4-4---4-4---4-4---4-4-4-4---4-4---4-4---4-4-4-4---4-4---4-4---4-4-4-4---4-4---4-4-|
A-2---------2-----4---------------------4-------------------------------------------------|
E-----------------------4---------4-----------2---------2-----4-----0---------0-----2-----|

   I'm out of touch, I'm out of love I'll pick you up when you're getting down
   And of all these things I've done I think I love you better now
   I'm out of sight, I'm out of mind I'll do it all for you in time
   And of all these things I've done I think I love you better now


1x
E---------------------------------------------|
B---------------------------------------------|
G---4-4-4-4---4-4---4-4---4-4-4-4---4-4---4-4-|
D---4-4-4-4---4-4---4-4---4-4-4-4---4-4---4-4-|
A-2---------2---------------------------------|
E-----------------2-----4---------4-----2-----|

2x
E-----------------------------------------------------------------------------------------|
B-----------------------------------------------------------------------------------------|
G---4-4-4-4---4-4---4-4---4-4-4-4---4-4---4-4---4-4-4-4---4-4---4-4---4-4-4-4---4-4---4-4-|
D---4-4-4-4---4-4---4-4---4-4-4-4---4-4---4-4---4-4-4-4---4-4---4-4---4-4-4-4---4-4---4-4-|
A-2---------2---------------------------------2---------2---------------------------------|
E-----------------2-----4---------4-----2---------------------2-----4---------4-----2-----|

   I'm gonna paint you by numbers and colour you in if things go right we can frame it, 
and put you on a wall
   And it's so hard to say it but I've been here before and I'll surrender up my heart 
and swap it for yours



2x
E-----------------------------------------------------------------------------------------|
B-----------------------------------------------------------------------------------------|
G---4-4-4-4---4-4---4-4---4-4-4-4---4-4---4-4---4-4-4-4---4-4---4-4---4-4-4-4---4-4---4-4-|
D---4-4-4-4---4-4---4-4---4-4-4-4---4-4---4-4---4-4-4-4---4-4---4-4---4-4-4-4---4-4---4-4-|
A-2---------2-----4---------------------4-------------------------------------------------|
E-----------------------4---------4-----------2---------2-----4-----0---------0-----2-----|

   I'm out of touch, I'm out of love I'll pick you up when you're getting down
   And of all these things I've done I think I love you better now
   I'm out of sight, I'm out of mind I'll do it all for you in time
   And of all these things I've done I think I love you better now


1x (bridge)
E-----------------------------------------------------------------------------------------|
B-----------------------------------------------------------------------------------------|
G---4-4-4-4---4-4-4-4---4-4-4-4---4-4---4-4---4-4-4-4---4-4---4-4---4-4-4-4---4-4---4-4---|
D---4-4-4-4---4-4-4-4---4-4-4-4---4-4---4-4---4-4-4-4---4-4---4-4---4-4-4-4---4-4---4-4---|
A-----------------------------------------------------------------------------------------|
E-4---------2---------0---------0-----2-----0---------0-----2-----0---------0-----2-------|

   Don't hold me down I think my braces are breaking and it's more than I can take


1x
E-----------------------------------------------------------------------------------------|
B-----------------------------------------------------------------------------------------|
G-----------------------------------------------------------------------------------------|
D-----------------------------------------------------------------------------------------|
A-2---------2---------------------------------2---------2---------------------------------|
E-----------------2-----4---------4-----0---------------------2-----4---------0-----------|

   And if it's dark in a cold December, I've got ya to keep me warm
   and if you're broke I'll mend ya and keep you sheltered from the storm that's raging on


1x
E-----------------------------------------------------------------------------------------|
B-----------------------------------------------------------------------------------------|
G-------------4-4---4-4---4-4-4-4---4-4---4-4---4-4-4-4---4-4---4-4---4-4-4-4---4-4---4-4-|
D-------------4-4---4-4---4-4-4-4---4-4---4-4---4-4-4-4---4-4---4-4---4-4-4-4---4-4---4-4-|
A-2---------2---------------------------4-------------------------------------------------|
E-----------------2-----4---------4-----------2---------2-----4-----0---------0-----2-----|

   I'm out of touch, I'm out of love I'll pick you up when you're getting down
   And of all these things I've done I think I love you better now


1x
E-----------------------------------------------------------------------------------------|
B-----------------------------------------------------------------------------------------|
G---4---------------------4---------------------4-----------------------------------------|
D---4---------------------4---------------------4-----------------------------------------|
A-2---------2---------------------------4-------------------------------------------------|
E-----------------2-----4---------4-----------2----------2-----4----0----------------2----|

   I'm out of sight, I'm out of mind I'll do it all for you in time
   And of all these things I've done I think I love you better now
Tap to rate this tab
# A B C D E F G H I J K L M N O P Q R S T U V W X Y Z