Song name
# A B C D E F G H I J K L M N O P Q R S T U V W X Y Z

Ed Sheeran - Lego House Acoustic tab

Capo 2nd fret

**This part is finger picked and should flow flawlessly through the two chord structures.

VERSES

(Relative capo)
   A2                                 F#m
e||--------------------0-------------|-------------------------------------||
B||-------0-----0------------0-----0-|-------0------0-------3-----2--------||
G||-----2-----2------2-----2-----2---|-----2------2------2------2-----2----||
D||---2-----2------2-----2-----2-----|---2------2------2------2------2-----||
A||-0--------------------------------|-------------------------------------||
E||----------------------------------|-2-----------------------------------||

**Play with the track and try and get a feel for it. The part is actually played with a 
delay and a lot of what is written here is just making the acoustic sound like the 
delay. Play soft.

CHORUS

**Tabbed strumming patterns are confusing so I've placed a > where strumming occurs.

   A2              F#m              E               B
e||--------0>-----|--------(0)>----|--------0>-----|--------0------||
B||--------0>-----|-----0---0>-----|--------0>-----|--------0------||
G||-----2--2>-----|-----2---2>-----|-----1--1>-----|-----4--4------||
D||---2----2>-----|---2-----2>-----|---2----2>-----|---4----4------||
A||-0------0>-----|---------x------|--------2>-----|-2------2------||
E||---------------|-2-------2>-----|-0------0>-----|-------(0)-----||

BRIDGE

There is a lot of variation happening in the bridge. The chords you hear are carried 
through by bass notes on the piano. This is my best attempt at the guitar part just from 
hearing it.

   D2/F#    F#m    B/E     B7/E
e||-*0>---|--0>---|--0>---|--0>---||
B||--3>---|--0>---|--0>---|--0>---||
G||--2>---|--2>---|--4>---|--2>---||
D||--0>---|--2>---|--4>---|--4>---||
A||--x>---|--x>---|--2>---|--2>---||
E||-*2>---|--2>---|--0>---|--0>---||

Feel free to make corrections as you see fit.
Tap to rate this tab
# A B C D E F G H I J K L M N O P Q R S T U V W X Y Z