Song name
# A B C D E F G H I J K L M N O P Q R S T U V W X Y Z

Ed Sheeran - Give Me Love tab

*Capo 2*
Verse: G#m7, E, B5
Pre-Chorus: C#m7, E, B5, F#
Chorus: B5, C#m7, E, G#m, F#

Intro: 
e|-------------------------------------|
B|-------------------------------------|
G|-------------------------------------| 
D|-------------------------------------|
A|--2----------------------------------|
E|-----2--3----------------------------| go into verse

Verse: 
G#m7        E         B5
Give me love like her,
G#m7                   E                B5
'cause lately I've been waking up alone,
G#m7                E               B5
Paint splattered teardrops on my shirt,
G#m7        E           B5
Told you I'd let them go,

Pre-Chorus:
C#m7                E
And that I'll fight my corner,
C#m7               E
Maybe tonight I'll call ya,
B5                               F#
After my blood turns into alcohol,
C#m7                     E
No, I just wanna hold ya.

Chorus:
B5            C#m7    E
Give a little time to me or burn this out,
B5         C#m7     E
We'll play hide and seek to turn this around,
B5    C#m7        E
All I want is the taste that your lips allow,

e|-------------------------------------|
B|-------------------------------------|
G|-------------------------------------| x5
D|-------------------------------------|
A|---------------------2--2--2--2--2--2|
E|---4--4--4--0--0--0------------------|
My, my, my, my, oh give me love,
My, my, my, my, oh give me love,
My, my, my, my, oh give me love,
My, my, my, my, oh give me love,
My, my, my, my, oh give me love.

Verse:
G#m7             E            B5
Give me love like never before,
G#m7                 E               B5
'cause lately I've been craving more,
G#m7                     E                      B5
And it's been a while but I still feel the same,
G#m7         E            B5
Maybe I should let you go,


Pre-Chorus:
C#m7                E
You know I'll fight my corner,
C#m7               E
Maybe tonight I'll call ya,
B5                               F#
After my blood turns into alcohol,
C#m7                     E
No, I just wanna hold ya.

Chorus:
B5            C#m7    E
Give a little time to me or burn this out,
B5         C#m7     E
We'll play hide and seek to turn this around,
B5    C#m7        E
All I want is the taste that your lips allow,

e|-------------------------------------|
B|-------------------------------------|
G|-------------------------------------| x21 (or when you wanna stop)
D|-------------------------------------|
A|---------------------2--2--2--2--2--2|
E|---4--4--4--0--0--0------------------|
My, my, my, my, oh give me love,
My, my, my, my, oh give me love,
My, my, my, my, oh give me love,
My, my, my, my, oh give me love,
My my, my, my, oh give me love.

M-my my, m-my my, m-my my, give me love, lover,
M-my my, m-my my, m-my my, give me love, lover,
M-my my, m-my my, m-my my, give me love, lover,
M-my my, m-my my, m-my my, give me love, lover.

M-my my, m-my my, m-my my, give me love, lover,
M-my my, m-my my, m-my my, give me love, lover,
M-my my, m-my my, m-my my, give me love, lover,
M-my my, m-my my, m-my my, give me love, lover (love me, love me, love me).

M-my my, m-my my, m-my my, give me love, lover (give me love),
M-my my, m-my my, m-my my, give me love, lover (give me love),
M-my my, m-my my, m-my my, give me love, lover (give me love, love me),
M-my my, m-my my, m-my my, give me love, lover (give me love).

My, my, my, my, oh give me love,
My, my, my, my, oh give me love,
My, my, my, my, oh give me love,
My, my, my, my, oh give me love
Tap to rate this tab
# A B C D E F G H I J K L M N O P Q R S T U V W X Y Z