Song name
# A B C D E F G H I J K L M N O P Q R S T U V W X Y Z

Ed Sheeran - Billy Ruskin tab

Intro

e|-------------0--------------------------0-----0-----|
b|------0-2-(2)---------------0-------4-----4---------|
g|--2-2----------------1-2-(2)----4-4---4-----4-------| x2
d|-----------------2-2--------------------------------|
a|----------------------------------------------------|
e|----------------------------------------------------|


verse is exactly the same as intro just finishes off with a B and then E chord

e|-------------0--------------------------0-----0-----|
b|------0-2-(2)---------------0-------4-----4---------|
g|--2-2----------------1-2-(2)----4-4---4-----4-------| x3
d|-----------------2-2--------------------------------|
a|----------------------------------------------------|
e|----------------------------------------------------|

e|-------------0---------------------2-------0--------|
b|------0-2-(2)---------------0------2-------0--------|
g|--2-2----------------1-2-(2)-------4-------1--------|
d|-----------------2-2---------------4-------2--------|
a|-----------------------------------2-------2--------|
e|-----------------------------------x-------x--------|

James flynn
Tap to rate this tab
 
# A B C D E F G H I J K L M N O P Q R S T U V W X Y Z