Song name
# A B C D E F G H I J K L M N O P Q R S T U V W X Y Z

Ed Sheeran - Yellow Pages tab

3rd harmonic in first phrase could be artificial harmonic on 14th on G string but i'm 
not sure

*harmonic
/ slide

e|-------------------------*12---------------------------|
b|-------4------------2-----*12-------2------4-----------|
g|-------------2----------------------2----2-------------|
d|-----2-------2-----2-----------------------------------| 1st Phrase
a|---2-------------0---------*12----2----2---------------|
e|-----------2-----------0-------------------------------|

e|-------------------------------------------------------|
b|-----2--------------------7/9-----2-------4------------|
g|-----2----------------------------2-----2--------------|
d|--------------------------9/11-------------------------| 2nd Phrase
a|--0-----------------------------2-----2----------------|
e|--------0----5-4-0-5-4-0-------------------------------|

e|-------------------------*12---------------------------|
b|-------4------------2-----*12-------2------4-----------|
g|-------------2----------------------2----2-------------| 3rd Phrase
d|-----2-------2-----2-----------------------------------| (Phrase 1 Repeated)
a|---2-------------0---------*12----2----2---------------|
e|-----------2-----------0-------------------------------|

e|-------------------------------------------------------|
b|-------------------------------------------------------|
g|-----2-------------------------------------------------|
d|-----2-------------------------------------------------| 4th Phrase
a|--0--------4--2--0-(2)---------------------------------|
e|--------0--5--4--2--0----------------------------------|
Tap to rate this tab
# A B C D E F G H I J K L M N O P Q R S T U V W X Y Z