Song name
# A B C D E F G H I J K L M N O P Q R S T U V W X Y Z

Ed Sheeran - Gold Rush tab

|----------------------------------|-----------------------|-----------------------------|
|--9-10-10--/12---12--12-12-10-9---|-9-10-9----------------|---------------12---------12-|
|--9-9--11--/13---13--13-13-11-9---|-9-9--9----------------|------9-11b13-----11b13------|
|----------------------------------|--------11-9-11-9----9-|-9-11------------------------|
|----------------------------------|------------------11---|-----------------------------|
|----------------------------------|-----------------------|-----------------------------|

|--------12-14b16--14b16--12-------------------------------------|-----------------------|
|--12-14---------------------14p12-----12-12-14p12--14p12-----12-|-----------------------|
|-----------------------------------14---------------------14----|-14-13-13-11-9-9-------|
|----------------------------------------------------------------|-----------------11-9-9|
|----------------------------------------------------------------|-----------------------|
|----------------------------------------------------------------|-----------------------|

|-------------------------------|------------------|
|-------------------------------|------------------|
|-------------------------------|-------------9h11-|
|-------------------------------|-------9h11-------|
|--12-12-12-12p11--12p11--------|-9h11-------------|
|-------------------------12-12-|------------------|

|---------------------------------------------|-------------------------------------------|
|--12-----12-----12-----12-----12-------------|-12-----12-----12-----12-----12----------9-|
|--11b13--11b13--11b13--11b13--11b13--11-9-11-|-11b13--11b13--11b13--11b13--11b13--11-9-9-|
|---------------------------------------------|-------------------------------------------|
|---------------------------------------------|-------------------------------------------|
|---------------------------------------------|-------------------------------------------|

Tap to rate this tab
# A B C D E F G H I J K L M N O P Q R S T U V W X Y Z