Song name
# A B C D E F G H I J K L M N O P Q R S T U V W X Y Z

Ed Sheeran - Lego House Acoustic tab

Ed Sheeran - Lego House (Acoustic live version)
Tuning: Standard (E A D G B E)
Key: B major (B C# D# E F# G# A# B)
Tempo: 75-80 bpm
Transcribed by Robert from Astlessons
Link to my tutorial on YouTube: http://www.youtube.com/watch?v=mUZEsQDASHQ



[Intro]

  B5                      B5/F#     B5/G#                   Bmaj7/E
|---------------------------------|---------------------------------|
|---------------------------------|---------------------------------|
|---4---4---4---4---4---4---4---4-|---4---4---4---4---4---4---3---3-|
|---4---4---4---4---4---4---4---4-|---4---4---4---4---4---4---4---4-|
|-2-------------------------------|---------------------------------|
|-------------------------2-------|-4-----------------------0-------|

  B5                      B5/F#     B5/G#                   Bmaj7/E
|---------------------------------|---------------------------------|
|---------------------------------|---------------------------------|
|---4---4---4---4---4---4---4---4-|---4---4---4---4---4---4---3---3-|
|---4---4---4---4---4---4---4---4-|---4---4---4---4---4---4---4---4-|
|-2---------------2---------------|---------------------------------|
|-------------------------2-------|-4---------------4-------0-------|


[Verse 1]

  B5                      B5/F#     B5/G#                   B5/E
|---------------------------------|---------------------------------|
|---------------------------------|---------------------------------|
|---4---4---4---4---4---4---4---4-|---4---4---4---4---4---4---4---4-| x4
|---4---4---4---4---4---4---4---4-|---4---4---4---4---4---4---4---4-|
|-2---------------2---------------|---------------------------------|
|-------------------------2-------|-4---------------4-------0-------|


[Bridge]

  B5              B5/F#             B5/G#                   B5/E
|---------------------------------|---------------------------------|
|---------------------------------|---------------------------------|
|---4---4---4---4---4---4---4---4-|---4---4---4---4---4---4---4---4-|
|---4---4---4---4---4---4---4---4-|---4---4---4---4---4---4---4---4-|
|-2-------------------------------|---------------------------------|
|-----------------2---------------|-4---------------4-------0-------|

  B5              B5/F#             B5/G#          /E
|---------------------------------|---------------------------------|
|---------------------------------|---------------------------------|
|---4---4---4---4---4---4---4---4-|---4---4-------------------------|
|---4---4---4---4---4---4---4---4-|---4---4-------------------------|
|-2-------------------------------|---------------------------------|
|-----------------2---------------|-4---------------0---------------|


[Chorus 1]

  B5                      B5/C#     B5/G#
|---------------------------------|---------------------------------|
|---------------------------------|---------------------------------|
|---4---4---4---4---4---4---4---4-|---4---4---4---4---4---4---4---4-|
|---4---4---4---4---4---4---4---4-|---4---4---4---4---4---4---4---4-|
|-2---------------2-------4-------|---------------------------------|
|---------------------------------|-4---------------4---------------|

  B5/F#                   B5/G#     B5/E            B5/F#
|---------------------------------|---------------------------------|
|---------------------------------|---------------------------------|
|---4---4---4---4---4---4---4---4-|---4---4---4---4---4---4---4---4-|
|---4---4---4---4---4---4---4---4-|---4---4---4---4---4---4---4---4-|
|---------------------------------|---------------------------------|
|-2---------------2-------4-------|-0---------------2---------------|

  B5                      B5/C#     B5/G#
|---------------------------------|---------------------------------|
|---------------------------------|---------------------------------|
|---4---4---4---4---4---4---4---4-|---4---4---4---4---4---4---4---4-|
|---4---4---4---4---4---4---4---4-|---4---4---4---4---4---4---4---4-|
|-2---------------2-------4-------|---------------------------------|
|---------------------------------|-4---------------4-------4-------|

  B5/F#                   B5/G#     B5/E                    B5/F#
|---------------------------------|---------------------------------|
|---------------------------------|---------------------------------|
|---4---4---4---4---4---4---4---4-|---4---4---4---4---4-------4---4-|
|---4---4---4---4---4---4---4---4-|---4---4---4---4---4-------4---4-|
|---------------------------------|---------------------------------|
|-2---------------2-------4-------|-0---------------0-------2-------|


[Interlude]

  B5                      B5/F#     B5/G#                   Bmaj7/E B5/
|---------------------------------|---------------------------------|
|---------------------------------|---------------------------------|
|-------4---4---4---4---4---4---4-|---4---4---4---4---4---4---3---4-|
|-------4---4---4---4---4---4---4-|---4---4---4---4---4---4---4---4-|
|-2---------------2---------------|---------------------------------|
|-------------------------2-------|-4---------------4-------0-------|


[Verse 2]

  B5                      B5/F#     B5/G#                   B5/E
|---------------------------------|---------------------------------|
|---------------------------------|---------------------------------|
|---4---4---4---4---4---4---4---4-|---4---4---4---4-------4---4---4-|
|---4---4---4---4---4---4---4---4-|---4---4---4---4-------4---4---4-|
|-2---------------2---------------|---------------------------------|
|-------------------------2-------|-4---------------4-------0-------|

  B5                      B5/F#     B5/G#          /E
|---------------------------------|---------------------------------|
|---------------------------------|---------------------------------|
|---4---4---4---4---4---4---4---4-|---4---4---4---4-----------------|
|---4---4---4---4---4---4---4---4-|---4---4---4---4-----------------|
|-2---------------2---------------|---------------------------------|
|-------------------------2-------|-4---------------0---------------|

  B5                      B5/F#     B5/G#                   B5/F#
|---------------------------------|---------------------------------|
|---------------------------------|---------------------------------|
|---4---4---4---4---4---4---4---4-|---4---4---4---4---4---4---4---4-|
|---4---4---4---4---4---4---4---4-|---4---4---4---4---4---4---4---4-|
|-2---------------2---------------|---------------------------------|
|-------------------------2-------|-4---------------4-------2-------|

  B5                      B5/F#     B5/G#          /E
|---------------------------------|---------------------------------|
|---------------------------------|---------------------------------|
|---4---4---4---4---4---4---4---4-|---4---4---4---4-----------------|
|---4---4---4---4---4---4---4---4-|---4---4---4---4-----------------|
|-2---------------2---------------|---------------------------------|
|-------------------------2-------|-4---------------0---------------|


[Chorus 2]

  B5                      B5/C#     B5/G#                   B5
|---------------------------------|---------------------------------|
|---------------------------------|---------------------------------|
|---4---4---4---4---4---4---4---4-|---4---4---4---4---4---4---4---4-|
|---4---4---4---4---4---4---4---4-|---4---4---4---4---4---4---4---4-|
|-2---------------2-------4-------|-------------------------2-------|
|---------------------------------|-4---------------4---------------|

  B5/F#                   B5/G#     B5/E                    B5/F#
|---------------------------------|---------------------------------|
|---------------------------------|---------------------------------|
|---4---4---4---4-------4---4---4-|---4---4---4---4---4---4---4---4-|
|---4---4---4---4-------4---4---4-|---4---4---4---4---4---4---4---4-|
|---------------------------------|---------------------------------|
|-2---------------2-------4-------|-0---------------0-------2-------|

  B5                      B5/C#     B5/G#                   B5
|---------------------------------|---------------------------------|
|---------------------------------|---------------------------------|
|---4---4---4---4---4---4---4---4-|---4---4---4---4-------4---4---4-|
|---4---4---4---4---4---4---4---4-|---4---4---4---4-------4---4---4-|
|-2---------------2-------4-------|-------------------------2-------|
|---------------------------------|-4---------------4---------------|

  B5/F#                   B5/G#     B5/E                    B5/F#
|---------------------------------|---------------------------------|
|---------------------------------|---------------------------------|
|---4---4---4---4---4---4---4---4-|---4---4---4---4---4---4---4---4-|
|---4---4---4---4---4---4---4---4-|---4---4---4---4---4---4---4---4-|
|---------------------------------|---------------------------------|
|-2---------------2-------4-------|-0---------------0-------2-------|


[Stick]

  B5/G#           B5/F#             B5/E
|---------------------------------|---------------------------------|
|---------------------------------|---------------------------------|
|---4---4---4---4---4---4---4---4-|---4---4---4---4-------4---4---4-|
|---4---4---4---4---4---4---4---4-|---4---4---4---4-------4---4---4-|
|---------------------------------|---------------------------------|
|-4-----------4---2---2-----------|-0---------------0-----------0---|

  B5/F#                             B5/E            B5/F#
|---------------------------------|---------------------------------|
|---------------------------------|---------------------------------|
|---4---4---4---4-------4---4---4-|---4---4---4---4-------4---4---4-|
|---4---4---4---4-------4---4---4-|---4---4---4---4-------4---4---4-|
|---------------------------------|---------------------------------|
|-2---------------2---------------|-0---------------2---------------|

 /B              /B      /F#       /G#             /G#     /E
|---------------------------------|---------------------------------|
|---------------------------------|---------------------------------|
|---------------------------------|---------------------------------|
|---------------------------------|---------------------------------|
|-2---------------2---------------|---------------------------------|
|-------------------------2-------|-4---------------4-------0-------|

 /B              /B      /F#       /G#             /E
|---------------------------------|---------------------------------|
|---------------------------------|---------------------------------|
|---------------------------------|---------------------------------|
|---------------------------------|---------------------------------|
|-2---------------2---------------|---------------------------------|
|-------------------------2-------|-4---------------0---------------|


[Chorus 3]

 /B               B5      B5/F#     B5/G#                   B5
|---------------------------------|---------------------------------|
|---------------------------------|---------------------------------|
|-------------------4---4---4---4-|---4---4---4---4---4---4---4---4-|
|-------------------4---4---4---4-|---4---4---4---4---4---4---4---4-|
|-2---------------2---------------|-------------------------2-------|
|-------------------------2-------|-4---------------4---------------|

  B5/F#                   B5/G#     B5/E                    B5/F#
|---------------------------------|---------------------------------|
|---------------------------------|---------------------------------|
|---4---4---4---4---4---4---4---4-|---4---4---4---4---4---4---4---4-|
|---4---4---4---4---4---4---4---4-|---4---4---4---4---4---4---4---4-|
|---------------------------------|---------------------------------|
|-2---------------2-------4-------|-0---------------0-------2---2---|

  B5              B5      B5/C#     B5/G#
|---------------------------------|---------------------------------|
|-0---------------0-------0-------|-0-------------------------------|
|-4---------------4-------4-------|-4-------------------------------|
|-4---------------4-------4-------|-4-------------------------------|
|-2---------------2-------4-------|-x-------------------------------|
|---------------------------------|-4-------------------------------|

  B5/F#                             B5/E            B5/F#           B5
|---------------------------------|------------------------------------|
|---------------------------------|------------------------------------|
|-4-------------------------------|-4---------------4--------------(4)-|
|-4-------------------------------|-4---------------4--------------(4)-|
|---------------------------------|---------------------------------2~-|
|-2-------------------------------|-0---------------2------------------|



This is also available for download in .pdf on Astlessons.com
Tap to rate this tab
# A B C D E F G H I J K L M N O P Q R S T U V W X Y Z