Song name
# A B C D E F G H I J K L M N O P Q R S T U V W X Y Z

Ed Sheeran - Tenerife Sea tab

-------------------------------------------------------------------------------
                            Tenerife Sea - Ed Sheeran
-------------------------------------------------------------------------------

Based on Ed's first performance of this amazing song at Madison Square Garden. The
intro, verses and chorus are all the same tab, hope it makes sense.
The bridge is kind of improvised cause I wasn't sure

Standard tuning, capo on 4th


(Intro)
e|---------------------------------------|-------------------------------------------|
B|---------------------------------2p0---|-------------------------------------------|
G|-----2-------2--------2----------------|------2-------2-------2--------2-----------|
D|---2---2---2---2----2---2----2---------|---2---2----2---2----2---2----2---2--------|
A|------------------0--------0-----------|--4--------2--------0--------0-------------|
E|-0-------2-----------------------------|-------------------------------------------|
                                     (x3)

e|---------------------------|
B|---------------------------|
G|-----2--------2------------|
D|---2---2---2---2-----------|
A|-0--------0----------------|
E|---------------------------|

(Verse 1)
e|---------------------------------------|---------------------------------------------|
B|---------------------------------2p0---|---------------------------------------------|
G|-----2-------2--------2----------------|--------2-------2---------2--------2---------|
D|---2---2---2---2----2---2----2---------|-----2----2---2---2-----2---2----2----2------|
A|------------------0--------0-----------|---4---------2-------0----------0------------|
E|-0-------2-----------------------------|---------------------------------------------|
                                     (x3)

e|---------------------------|
B|---------------------------|
G|------2---------2----------|
D|----2---2----2----2--------|
A|-0---------0---------------|
E|---------------------------| (Whole thing x2)

You look so wonderful in your dress
I love your hair like that
The way it falls on the side of your neck
Down your shoulders and back
We are surrounded by all of these lies
And people who talk too much
You got the kind of look in your eyes
As if no one knows anything but us

(Pre-chorus)
e|----------------------------------------|-----------------------|
B|-------2--------2-------2--------2------|-----2-------2---------|
G|-----2---2----2---2---2---2---2---2-----|---2---2---2---2-------|
D|--4--------2--------0-------0-----------|-0-------0-------------|
A|----------------------------------------|-----------------------|
E|----------------------------------------|-----------------------|
                                     (x3)

And should this be the last thing I see
I want you to know it's enough for me
Cause all that you are is all I'll ever need

(Chorus)
e|---------------------------------------|----------------------------------------------|
B|---------------------------------2p0---|----------------------------------------------|
G|-----2-------2--------2----------------|------2-------2--------2-------2--------------|
D|---2---2---2---2----2---2----2---------|---2---2----2----2----2---2---2---2-----------|
A|------------------0--------0-----------|-4---------2--------0--------0----------------|
E|-0-------2-----------------------------|----------------------------------------------|
                                     (x3)

e|---------------------------|
B|---------------------------|
G|-----2---------2-----------|
D|---2----2---2---2----------|
A|-0---------0---------------|
E|---------------------------|

I'm so in love, so in love, so in love, so in love

(Verse 2 - same as Verse 1)
You look so beautiful in this light
Your silhouette over me
The way it brings out the blue
In your eyes is the Tenerife Sea
And all of the voices surrounding us here
They just fade out when you take a breath
Just say the word and now we'll disappear
Or into the wilderness

(Bridge - improvised):
e|----------------------------------------------------------------------------------|
B|-----2-------2-------2-------2-------2--------2--------2--------2-----------------|
G|---2---2---2---2---2---2----2---2---2---2---2----2---2----2----2---2--------------|
D|-2-------2-------0-------0--------------------------------------------------------|
A|----------------------------------4-------4--------2---------2--------------------|
E|----------------------------------------------------------------------------------|

Lumière, darling
Lumière over me (x6)

(Ending - same as Intro/Verses)
You looked so wonderful in your dress
I loved your hair like that
And in the moment I knew you best
Tap to rate this tab
# A B C D E F G H I J K L M N O P Q R S T U V W X Y Z