Song name
# A B C D E F G H I J K L M N O P Q R S T U V W X Y Z

Ed Sheeran - I See Fire tab

-------------------------------------------------------------------------------
                             I See Fire   -   Ed Sheeran
-------------------------------------------------------------------------------
Tabbed by: Sarah Jackson


Just a little tab for the solo part in the middle (at 1:50 in the music video)

Standard Tuning
Capo on 6


x = palm muted strum


e|----------------------------x---------x---------x----------------------------|
B|---5------------------------x---3-----x---------x----------------------------|
G|---0h2p0--0-------0---0-----x---0h2---x-----0---x----------------------------|
D|-------------0h2------0h2---x---0-----x-----2---x----------------------------|
A|----------------------3---------------------2--------------------------------|
E|---0-------------------------------------------------------------------------|
Tap to rate this tab
 
# A B C D E F G H I J K L M N O P Q R S T U V W X Y Z