Song name
# A B C D E F G H I J K L M N O P Q R S T U V W X Y Z

Ed Sheeran - Tenerife Sea tab

CAPO 4
          A          //       B         //        C
e-----------------------------------------------------------------------|
B---------0--------------------0-----------------0------0h2p0-----------|
G-----------------------------------------------------------------------|
D----2---------2----------4--------4---------2------2-----------2-------|
A-------------------------------------------0--0---0--0-----------------|
E--0----0----0-----0----2----2---2----2---------------------------------|

             D       //     E            //        C(without hammer on)
e--------------------------------------------------------------------------|
B----------0------------------0---------------------0----------------------|
G--------------------------------------------------------------------------|
D------6--------6--------4---------4----------2-----------2----------------|
A----4---4----4---4----2---2-----2---2------0---0-------0---0--------------|
E--------------------------------------------------------------------------|




This is intro/verse/chorus

Pre Chorus: C A E

^^^REMEMBER: These are not chords! just the symboled sections above. C without hammer on)
-----------------

This is tabbed from a youtube video.

http://www.youtube.com/watch?v=-_Hqn2uJALk

-----------------

Amazing song! dudes...sing it for the right girl.
Tap to rate this tab
 
# A B C D E F G H I J K L M N O P Q R S T U V W X Y Z