Song name
# A B C D E F G H I J K L M N O P Q R S T U V W X Y Z

Ed Sheeran - Tenerife Sea tab

-------------------------------------------------------------------------------
                          Ed Sheeran - Tenerife Sea
-------------------------------------------------------------------------------
Tabbed by: Ace
Tuning: EADEBE, capo 4

Intro
e|---------------------------------------------------------------------------|
b|-----------0-----------0-------------0h2p0-------0-------------------------|
E|-------0-----------0-----------0---0---------0-----------------------------| x3
D|-----2---2-------4---4-------2---2---2-----2---2---------------------------|
A|--------------------------0------------------------------------------------|
E|-0-----------2-------------------------------------------------------------|

e|---------------------------------------------------------------------------|
B|-----------0-----------0-----------0-----------0-----------0-----------0---|
E|-------0-----------0-----------0-----------0-----------0-----------0-------|
D|-----6---6-------4---4-------2---2-------2---2-------2---2-------2---2-----|
A|-4-----------2-----------0-----------0-----------0-----------0-------------|
E|---------------------------------------------------------------------------|

Verses
      You ...  Wonderful   In your dress
e|---------------------------------------------------------------------------|
b|-----------0-----------0-------------0 h 2 p 0-----0-----------------------|
E|-------0-----------0-----------0---0-----------0---------------------------| x3
D|-----2---2-------4---4-------2---2---2-----------2-------------------------|
A|-------------------------0-------------------------------------------------|
E|-0-----------2-------------------------------------------------------------|
       Down .. Shoulders...Back
e|---------------------------------------------------------------------------|
B|-----------0-----------0-----------0-----------0---------------------------|
E|-------0-----------0-----------0-----------0-------------------------------|
D|-----6---6-------4---4-------2---2-------2---2-----------------------------|
A|-4-----------2-----------0-----------0-----------0-------------------------|
E|---------------------------------------------------------------------------|

Prechorus
   Should this be the      last thing..see
e|---------------------------------------------------------------------------|
B|-----------0-----------0-----------0-----------0---------------------------|
E|-------0-----------0-----------0-----------0-------------------------------| x2
D|-----2---2-------2---2-------2---2-------4---4-----------------------------|
A|-0-----------0-----------------------2-------------------------------------|
E|-------------------------0-------------------------------------------------|
  All that you are is      all that    I'll ever   need
e|---------------------------------------------------------------------------|
B|-----------0-----------0-----------0-----------0-----------0-----------0---|
E|-------0-----------0-----------0-----------0-----------0-----------0-------|
D|-----2---2-------2---2-------2---2-------2---2-------4---4---4---4---4-----|
A|-0-----------0-----------------------------------2-------------------------|
E|-------------------------0-----------0-------------------------------------|

e|---------------------------------------------------------------------------|
B|-----------0-----------0---------------------------------------------------|
E|-------0-----------0-------------------------------------------------------|
D|-4---4---4---4---4---4-----------------------------------------------------|
A|---------------------------------------------------------------------------|
E|---------------------------------------------------------------------------|

Bridge
   Lu-                 mi- ere
e|---------------------------------------------------------------------------|
B|-----------0-----------0-----------0-----------0---------------------------|
E|-------0-----------0-----------0-----------0-------------------------------|
D|-----6---6-------6---6-------2---2-------2---2-----------------------------|
A|-4-----------4-----------0-----------0-------------------------------------|
E|---------------------------------------------------------------------------|
   Dar-                    ling
e|---------------------------------------------------------------------------|
B|-----------0-----------0-----------0-----------0---------------------------|
E|-------0-----------0-----------0-----------0-------------------------------|
D|-----4---4-------4---4-------2---2-------2---2-----------------------------|
A|-2-----------2-------------------------------------------------------------|
E|-------------------------0-----------0-------------------------------------|

   Lu-                 mi- ere         O-      ver
e|---------------------------------------------------------------------------|
B|-----------0-----------0-----------0-----------0---------------------------|
E|-------0-----------0-----------0-----------0-------------------------------|
D|-----6---6-------6---6-------2---2-------2---2-----------------------------|
A|-4-----------4-----------0-----------0-------------------------------------|
E|---------------------------------------------------------------------------|
   Me
e|---------------------------------------------------------------------------|
B|-----------0-----------0-----------0-----------0---------------------------|
E|-------0-----------0-----------0-----------0-------------------------------|
D|-----4---4---4---4---4---4---4---4---4---4---4-----------------------------|
A|-2-------------------------------------------------------------------------|
E|---------------------------------------------------------------------------|

************************************

| /   slide up
| \   slide down
| h   hammer-on
| p   pull-off
| ~   vibrato
| +   harmonic
| x   Mute note
| b   Bend
| pb  Pre-bend
| br  Bend release
| pbr Pre-bend release
| brb Bend release bend

************************************
Tap to rate this tab
# A B C D E F G H I J K L M N O P Q R S T U V W X Y Z